Song name
# A B C D E F G H I J K L M N O P Q R S T U V W X Y Z

Il Divo - Unchained Melody chords

Highlighted       Show chord diagrams
Chord arpeggio like this:

   B                         G#m                      E
e|-----------------|---------------4-----------4------------0-----------|
B|-------4---------|---4-------------4-----------4------------0---------|
G|-----4---4-------|-4---4-------4-----4-----4-----4------1-----1-----1-|
D|---4-------4---4-|-------4---6-----------6------------2-----------2---|
A|-2-----------2---|----------------------------------------------------|
E|-----------------|---------4-----------4------------0-----------0-----|
     
  
         F#  
e|-0------------2-----------2--------|
B|---0------------2-----------2------|
G|-----1------3-----3-----3-----3----|
D|----------4-----------4------------|
A|-----------------------------------|
E|-------2------------2--------------|


B      G#m   E       F#        B
Non ho piú catene ma solo piangero
   G#m     F#
lontano da te
B      G#m   E       F#        
Non ho piú catene perché so che
       B      G#m    F#
il tuo amor é sol per me

  B           F#   G#m    D#m
E so che un di ti rivedrò
    E      F#  B    B7
ti stringero ancor

E                F#        E       D
Guardo il ciel e so, dove sei cosa fai
E          F#     B
e dovunque andrai senti rai
E                F#        E       D 
I sospiri miei che per ter sol per te
E          F#            B
parlano d'amor, del mio amor



C      Am    F       G        
Non ho piú catene ma solo piange
C         Am       G
il cuor lontano da te
C      Am    F       G
Non ho piú catene perché so che
       C     Am       G
il tuo amor é sol per me

  C           G             Am      Em  F              G        C  Am
E so che un di         ti rivedrò      ti stringero 
           (e so che un di)     (ti rivedró)      (ti stringero ancor)
   F   Dm   C
¡Anc -  o o o  - r!        
Tap to rate this tab
# A B C D E F G H I J K L M N O P Q R S T U V W X Y Z