Guitaretab - guitar tabs
Song name
# A B C D E F G H I J K L M N O P Q R S T U V W X Y Z

Ildhur - In Nomine Dei Nostri tab

#==========ILDHUR - IN NOMINE DEI NOSTRI==========#
#=======(The Wandering - 2005 - Azermedoth)=======#
#==(MUSIC AND VOCALS BY ILDHUR, LYRICS BY PESTEN)=#
#==(OFFICIAL BAND WEBSITE: http://www.ildhur.tk/)=#
#=======Transcribed by: n00bface on 12/10/05======#
#========E-Mail: n00bface at gmail dot com========#

LEGEND:  " = Tremolo Pick
         . = Palm Mute


RIFF 1 (X4):
e|------------------------------------------|
B|------------------------------------------|
G|-6-----6-----7----------------------------|
D|-4-444-4-444-5-7-4-7--6-----6-----7-6-4-2-|
A|---------------5-2-5--4-444-4-444-5-4-2-0-|
E|------------------------------------------|
     ...   ...            ...   ...

RIFF 2 (X2):
e|---------|
B|---------|
G|-6---6-5-|
D|-4-7-4-3-|
A|---5-----|
E|---------|

RIFF 3 (X6):
e|------------------------------------|
B|------------------------------------|
G|------------------------------------|
D|-----7--------7----6----6----6----6-|
A|-----5-55-----5-55-4-44-4-44-4-44-4-|
E|-222------555-----------------------|
   ...   .. ...   ..   ..   ..   ..

RIFF 4 (X1):
e|------------------------------------------------|
B|------------------------------------------------|
G|-6--7--6--4-------------------------------------|
D|-4--4--4--5--7--2-----2--6--4--7--4--6--7--6--4-|
A|-------------5--3--4--0--4--5--5--5--5--5--5--4-|
E|-------------------2----------------------------|

RIFF 5 (X4):
e|-------------|
B|-------------|
G|-6"-------5"-|
D|-4"-7"-6"-4"-|
A|----5"-4"----|
E|-------------|

RIFF 4 X1

[ Tab from: http://www.guitaretab.com/i/ildhur/66553.html ]
Solo (Played over Riff 3):

e|-----------------------------------------------------------------------------------------|
B|-14"-15"-14"-------------14"-------------------------------------14"-15"-14"-------------|
G|-------------14"-13"-14"-----14"-13"---------13"-14"-13"---------------------14"-13"-14"-|
D|-------------------------------------15"-16"-------------15"-----------------------------|
A|-------------------------------------------------------------16"-------------------------|
E|-----------------------------------------------------------------------------------------|

|-----------------------------------------------------------14"-12"-----------------------|
|-14h15p14----------14h15p14----------14h15p14----------14----------15"-14"-15"-14"h15p14-|
|----------14h15p14----------14h15p14----------14h15p14-----------------------------------|
|-----------------------------------------------------------------------------------------|
|-----------------------------------------------------------------------------------------|
|-----------------------------------------------------------------------------------------|

 |----------------------------------------|
 |-14h15p14-------15----------------------|
 |----------14-13----11-11h13h14-13-10-11-|
 |----------------------------------------|
 |----------------------------------------|
 |----------------------------------------|

RIFF 6 (Played over Riff 3 X14):
e|-----4-----------|
B|---7---7-----5---|
G|-6-------7-6---7-|
D|-----------------|
A|-----------------|
E|-----------------|

Fades out after the 8th repeat.
Advertisement will be closed in 10 seconds