Song name
# A B C D E F G H I J K L M N O P Q R S T U V W X Y Z

Ill Faith - Daydream Djs tab

Help us improve GuitareTab! Take a short survey!
to the greatest song of all time
ill faith
daydream dj's


intro/verse:
e)---------------------------------------------------------------|
b)---------------------------------------------------------------|
g)-55555555------------------------------------------------------|
d)-5555555555555555/7777777733333333-----------------------------|
a)-3333333355555555/7777777733333333-----------------------------|
E)---------33333333/5555555511111111-----------------------------|

chorus:
e)---------------------------------------------------------------|
b)---------------------------------------------------------------|
g)-55--------------55--------------------------------------------|
d)-55-55/77-33-----55-55/77-33-----------------------------------|
a)-33-55/77-33-----33-55/77-33-----------------------------------|
E)----33/55-11--------33/55-11-----------------------------------|

solo:
e)---------------------------------------------------------------|
b)---------------------------------------------------------------|
g)---------------------------------------------------------------|
d)---5---5-----------------------------------------(repeat)------|
a)-3---3-----5---5-/--7---7----3---3-----------------------------|
E)---------3---3---/5---5----1---1-------------------------------|
Related for Daydream Djs tab