Song name
# A B C D E F G H I J K L M N O P Q R S T U V W X Y Z

Ill Nino - Liar tab

Ill Nino: Liar

Transcribed by: Andrew Zara (disturbedfreak0520@yahoo.com)

Date last modified: May 31, 2007

PLEASE DO NOT COPY THIS TAB TO ANOTHER SITE
WITHOUT AUTHORS' PERMISSION. THANK YOU.

Tuning: Drop C (C,G,C,F,A,D)

Riff 1   "For all the pain..."
Guitar 1  (Flamenco guitar)
D|-10-10-10-10--10-10-10-10--10-10-11--10-10-10-10-10--8--8--8--8--8--8--|
A|-10-10-10-10--10-10-10-10--10-10-11--10-10-10-10-10--8--8--8--8--8--8--|
F|-7--7--7--7---7--7--7--7---7--7--7---7--7--7--7--7---10-10-10-10-10-10-|
C|-7--7--7--7---7--7--7--7---7--7--7---7--7--7--7--7---10-10-10-10-10-10-|
G|----------0------------0-------------0-----------0---8--8--8--8--8--8--|
C|-----------------------------------------------------------------------|

Riff 1
Guitar 2   (Turn on volume knob at the end.)
D|-12-12-12-12-12-12-12-12-12-12-12-12-12-12-12-12-12-12-12-12-12-12-12-|
A|----------------------------------------------------------------------|
F|----------------------------------------------------------------------|
C|----------------------------------------------------------------------|
G|----------------------------------------------------------------------|
C|----------------------------------------------------------------------|

Riff 2   "Aaaaahhhhhhh..."
D|-------------------------------------------------------|
A|-------------------------------------------------------|
F|-------------------------------------------------------|
C|-12-0--0-0-12-0--0-0-12-0--0-0-10-10-10-10-10-10-10-10-|
G|-12-0--0-0-12-0--0-0-12-0--0-0-8--8--8--8--8--8--8--8--|
C|-12-0--0-0-12-0--0-0-12-0--0-0-8--8--8--8--8--8--8--8--|

Play Riff 1   "Then all the pills wash it away..."
Play Riff 2   "I feel sick..."

Riff 3   "You say..."
Guitar 1
D|---------------------------------------------------------|
A|---------------------------------------------------------|
F|---------------------------------------------------------|
C|-7-7-7-7-7-7-7-7-0--8-8-8-8-8-8-8-8-0--7-7-7-7-7-7-7-7-0-|
G|-7-7-7-7-7-7-7-7-0--8-8-8-8-8-8-8-8-0--7-7-7-7-7-7-7-7-0-|
C|-7-7-7-7-7-7-7-7-0--8-8-8-8-8-8-8-8-0--7-7-7-7-7-7-7-7-0-|

D|-------------------------|
A|-------------------------|
F|-5-5-5-5-5-5-5-5-5-5-5-5-|
C|-5-5-5-5-5-5-5-5-5-5-5-5-|
G|-3-3-3-3-3-3-3-3-3-3-3-3-|
C|-3-3-3-3-3-3-3-3-3-3-3-3-|

Riff 3
Guitar 2
D|-12-12-12-12-12-12-12-12-12-12-12-12-12-12-12-12-|
A|-------------------------------------------------|
F|-------------------------------------------------|
C|-------------------------------------------------|
G|-------------------------------------------------|
C|-------------------------------------------------|

D|-13-13-13-13-13-13-13-13-13-13-13-13-13-13-13-13-|
A|-------------------------------------------------|
F|-------------------------------------------------|
C|-------------------------------------------------|
G|-------------------------------------------------|
C|-------------------------------------------------|

D|-12-12-12-12-12-12-12-12-12-12-12-12-12-12-12-12-|
A|-------------------------------------------------|
F|-------------------------------------------------|
C|-------------------------------------------------|
G|-------------------------------------------------|
C|-------------------------------------------------|

D|-------------------------------------------------|
A|-13-13-13-13-13-13-13-13-13-13-13-13-13-13-13-13-|
F|-------------------------------------------------|
C|-------------------------------------------------|
G|-------------------------------------------------|
C|-------------------------------------------------|

Riff 4   "Liar!"
D|-----------------------------------------|
A|-----------------------------------------|
F|-----------------------------------------|
C|-----------------------------------------|
G|-----------------------------------------|
C|-0--0--0--0-0-0-0--0--0--0-0--0--0-0-0-0-|

Play Riff 1   "For all the feelings that are right..."
Play Riff 2   "I feel sick..."
Play Riff 3   "You say..."

Riff 3a   (During second chorus.)
Guitar 2
D|-12-12-12-12-12-12-12-12-12-12-12-12-12-12-12-12-|
A|-------------------------------------------------|
F|-------------------------------------------------|
C|-------------------------------------------------|
G|-------------------------------------------------|
C|-------------------------------------------------|

D|-13-13-13-13-13-13-13-13-13-13-13-13-13-13-13-13-|
A|-------------------------------------------------|
F|-------------------------------------------------|
C|-------------------------------------------------|
G|-------------------------------------------------|
C|-------------------------------------------------|

D|-12-12-12-12-12-12-12-12-12-12-12-12-12-12-12-12-|
A|-------------------------------------------------|
F|-------------------------------------------------|
C|-------------------------------------------------|
G|-------------------------------------------------|
C|-------------------------------------------------|

D|-15-15-15-15-15-15-15-15-15-15-15-15-15-15-15-15-|
A|-------------------------------------------------|
F|-------------------------------------------------|
C|-------------------------------------------------|
G|-------------------------------------------------|
C|-------------------------------------------------|

Play Riff 4   "...bring you down..."

Riff 5   "Liar!"
D|--------------------------------------------|
A|--------------------------------------------|
F|--------------------------------------------|
C|-0--0--0--0-0-0-0--0--0--0-0--0--0--0-0-0-0-|
G|-0--0--0--0-0-0-0--0--0--0-0--0--0--0-0-0-0-|
C|-0--0--0--0-0-0-0--0--0--0-0--0--0--0-0-0-0-|

Riff 6   "You said that things would be the same..."
D|--------------------------------|
A|--------------------------------|
F|--------------------------------|
C|-0--0--0--0-0-0--0--0--0--0-0-0-|
G|-0--0--0--0-0-0--0--0--0--0-0-0-|
C|-0--0--0--0-0-0--0--0--0--0-0-0-|



Notation:

10^        = bend a quarter step.
10b11      = bend a half step.
10b12      = bend a full step.
10b12r10   = bend and release.
[10]12     = pre-bend.
[10]12r10  = pre-bend and release.
{14}       = pick the 14th fret while holding the most 
             previous bend.
<17>       = touch the string above the 17th fret while 
             previous note(s) is(are) still ringing.

10b13*     = tremolo bar bend, from the 10th fret to the 13th fret.
7d4*       = tremolo bar dive, from the 7th fret to the 4th fret. 
12~*       = tremolo bar vibrato.

x   =  mute with fret-hand
*   =  palm mute
X\\ =  pick slide
h   =  hammer-on
p   =  pull-off
~   =  vibrato
t   =  finger tap
/   =  slide up
\   =  slide down
h.  =  natural harmonics
a   =  artificial harmonics
(9) =  ghost note
tm  =  trem picking
tr  =  trill
Tap to rate this tab
# A B C D E F G H I J K L M N O P Q R S T U V W X Y Z