Song name
# A B C D E F G H I J K L M N O P Q R S T U V W X Y Z

Ill Nino - Eye For An Eye tab

Ill Nino - Eye For An Eye(Soulfly Cover)
Submitted By: Derek Donaldson
EMail: zero_hour_666@msn.com


INTRO
 | -------------------------------------------- |
 | -------------------------------------------- |
 | ---3-----------3-----------3---------------- |
 | ---3---2---2---3---2-2-2---3---------------- |
 | ---1---2---2---1---2-2-2---1---------------- | 
 | -------0---0-------0-0-0-------------------- | X3


 | -------------------------------------------------- |
 | -------------------------------------------------- |
 | ---3---3---3---3-3-3-3-3-3----------------- |
 | ---3---3---3---3-3-3-3-3-3----------------- |
 | ---1---1---1---1-1-1-1-1-1----------------- |
 | -------------------------------------------------- |

 | --------------------------------|
 | ------------------------------- |
 | ------------------------------- |
 | ---3---2---2------3---2---- |
 | ---3---2---2------3---2---- |
 | ---1---0---0------1---0---- |

 | --------------------------------------------------------------------|
 | --------------------------------------------------------------------|
 | --------------------------------------------------------------------|
 | --------------------------------------------------------------------|
 | --------------------------------------------------------------------|
 | ---0--2--2--2--3--2--2--2--3--2--2--2--3--2--2--2--3--- |

 | -------------------------------------------------------------------|
 | -------------------------------------------------------------------|
 | -------------------------------------------------------------------|
 | ---2---4---4--------2---4---4----2---4---4-----5------------ |
 | ---2---4---4--------2---4---4----2---4---4-----5------------ |
 | ---0---2---2--------0---2---2----0---2---2-----3------------ |
Tap to rate this tab
# A B C D E F G H I J K L M N O P Q R S T U V W X Y Z