Song name
# A B C D E F G H I J K L M N O P Q R S T U V W X Y Z

Ill Nino - One tab

Ill Nino - One Feat. Soulfly
Submitted By: Derek Donaldson
EMail: zero_hour_666@msn.com


This song they did with their friends Soulfly and its really good so enjoy :D

TUNING: drop D then lower 2 STEPS DOWN

(00:14)
D|--------15-|---------15-|
A|--7-8------|-15-14------|
F|-----------|------------|
C|-----------|------------|
G|-----------|------------|
C|-----------|------------|

(00:24)
D|---------------|
A|---------------|
F|---------------|
C|-1--1--1-1-1-0-|
G|-1--1--1-1-1-0-|
C|-1--1--1-1-1-0-|

(02:00)
D|-14-15-14-15-14-15-14-15--15---7-|
A|---------------------------------|
F|---------------------------------|
C|---------------------------------|
G|---------------------------------|
C|---------------------------------|

E-mail me questions :D
Tap to rate this tab
# A B C D E F G H I J K L M N O P Q R S T U V W X Y Z