Song name
# A B C D E F G H I J K L M N O P Q R S T U V W X Y Z

Ill Nino - What You Deserve tab

Ill Nino: What You Deserve

Transcribed by: Andrew Zara (disturbedfreak0520@yahoo.com)

Date last modified: May 30, 2007

PLEASE DO NOT COPY THIS TAB TO ANOTHER SITE
WITHOUT AUTHORS' PERMISSION. THANK YOU.

Tuning: Drop C (C,G,C,F,A,D)

Riff 1 (w/wah)
D|-------------------------------------------------------|
A|-------------------------------------------------------|
F|-7--7-7--7-7-7-7--7-7--7-7-7-7--7-7--7-7-7-7--7-7--7-7-|
C|-x--x-x--x-x-x-x--x-x--x-x-x-x--x-x--x-x-x-x--x-x--x-x-|
G|-5--5-5--5-5-5-5--5-5--5-5-5-5--5-5--5-5-5-5--5-5--5-5-|
C|-------------------------------------------------------|

Riff 2  "Go"
Guitar 1
D|-------------------------------------------------------|
A|-------------------------------------------------------|
F|-------7---7--------7---7--------10---10\--------7---7-|
C|-------8---7--------8---7--------10---10\--------8---7-|
G|-0-0-0---0----0-0-0---0----8-8-8----8------5-5-5---5---|
C|-0-0-0---0----0-0-0---0----8-8-8----8------5-5-5---5---|
   * * *   *    * * *   *    * * *    *      * * *   *

Riff 2
Guitar 2
D|-------------------------------------------------|
A|-------------------------------------------------|
F|-7-7-7-7-7-7-7-7---------------------------------|
C|-----------------8-8-8-8-8-8-8-8-5-5-5-5-5-5-5-5-|
G|-------------------------------------------------|
C|-------------------------------------------------|

Riff 3   "It's too bad that you..."
D|-------------------------------------------------------|
A|-------------------------------------------------------|
F|-------7-7-7-7-7-7-7-7-------10-10-10-10-------2-2-2-2-|
C|-------x-x-x-x-x-x-x-x-------x--x--x--x--------x-x-x-x-|
G|-0-0-0-5-5-5-5-5-5-5-5-8-8-8-8--8--8--8--5-5-5-0-0-0-0-|
C|-0-0-0-----------------8-8-8-------------5-5-5---------|
   * * *                 * * *             * * *

Riff 3 Ending   "What you deserve..."
D|-----------|
A|-----------|
F|-----------|
C|-8~--------|
G|-8~--------|
C|-8~--------|

Riff 4   "What you don't know..."
D|-------------------------------------------------------------------------|
A|-------------------------------------------------------------------------|
F|-7-7-7-7-7-7-7-7-3-3-3-3-3-----------7-7-7-7-7-7-7-7-3-3-3-3-3-5-5-5-5-5-|
C|-7-7-7-7-7-7-7-7-3-3-3-3-3-5-5-5-5-5-7-7-7-7-7-7-7-7-3-3-3-3-3-5-5-5-5-5-|
G|-5-5-5-5-5-5-5-5-1-1-1-1-1-5-5-5-5-5-5-5-5-5-5-5-5-5-1-1-1-1-1-3-3-3-3-3-|
C|---------------------------5-5-5-5-5-------------------------------------|

D|---------------------------------------------------------------------|
A|---------------------------------------------------------------------|
F|-7-7-7-7-7-7-7-7-3-3-3-3-3-----------3-3-3-3-3-3-3-3-5-5-5-5-5-5-5-5-|
C|-7-7-7-7-7-7-7-7-3-3-3-3-3-5-5-5-5-5-3-3-3-3-3-3-3-3-5-5-5-5-5-5-5-5-|
G|-5-5-5-5-5-5-5-5-1-1-1-1-1-5-5-5-5-5-1-1-1-1-1-1-1-1-3-3-3-3-3-3-3-3-|
C|---------------------------5-5-5-5-5---------------------------------|

Play Riff 2
Play Riff 3   "It's too bad that I..."
Play Riff 3 Ending   "What you deserve..."
Play Riff 4   "What you don't know..."

Riff 5   "So you lost yourself..."
D|-------------------------------------------------------------|
A|-------------------------------------------------------------|
F|-------------------------------------------------------------|
C|-0--2--3--5--8-8-8-8-8-8-8-8-0-0-0-0-0-0-0-0-3-3-3-3-3-3-3-3-|
G|-0--2--3--5--8-8-8-8-8-8-8-8-0-0-0-0-0-0-0-0-3-3-3-3-3-3-3-3-|
C|-0--2--3--5--8-8-8-8-8-8-8-8-0-0-0-0-0-0-0-0-3-3-3-3-3-3-3-3-|

D|-----------------------------------------|
A|-----------------------------------------|
F|-7-7-7-7/9-9-9-9/10-10-10-10/12-12-12-12-|
C|-x-x-x-x-x-x-x-x-x--x--x--x--x--x--x--x--|
G|-5-5-5-5/7-7-7-7/8--8--8--8//10-10-10-10-|
C|-----------------------------------------|

Riff 5 Ending   "What you deserve..."
D|----------|
A|----------|
F|----------|
C|-8~-------|
G|-8~-------|
C|-8~-------|

Play Riff 4   "What you don't know..."
Play Riff 2   "What you don't know, don't know..."

Riff 6
D|-------------------------------|
A|-------------------------------|
F|-------------------------------|
C|-0~----------------------------|
G|-0~----------------------------|
C|-0~----------------------------|


Notation:

10^        = bend a quarter step.
10b11      = bend a half step.
10b12      = bend a full step.
10b12r10   = bend and release.
[10]12     = pre-bend.
[10]12r10  = pre-bend and release.
{14}       = pick the 14th fret while holding the most 
             previous bend.
<17>       = touch the string above the 17th fret while 
             previous note(s) is(are) still ringing.

10b13*     = tremolo bar bend, from the 10th fret to the 13th fret.
7d4*       = tremolo bar dive, from the 7th fret to the 4th fret. 
12~*       = tremolo bar vibrato.

x   =  mute with fret-hand
*   =  palm mute
X\\ =  pick slide
h   =  hammer-on
p   =  pull-off
~   =  vibrato
t   =  finger tap
/   =  slide up
\   =  slide down
h.  =  natural harmonics
a   =  artificial harmonics
(9) =  ghost note
tm  =  trem picking
tr  =  trill


Tap to rate this tab
# A B C D E F G H I J K L M N O P Q R S T U V W X Y Z