Song name
# A B C D E F G H I J K L M N O P Q R S T U V W X Y Z

Ill Nino - My Resurrection tab

Ill Niņo - My Resurrection
Source: www.illninoworld.com
Tabbed by: Yoni Drijfhout (oct 27, 2005)
Questions/corrections: webmaster[at]illninoworld[dot]com

TUNED: drop C   (C,G,C,F,A,D)


INTRO
-----------------------------------------------------------------|
-----------------------------------------------------------------|
-7--7--7--8--8--5--5--11--11-8---7--7--7--8--8--5--5--11--11-8---|
---0--0--0--0--0--0--0--0------0---0--0--0--0--0--0--0--0--------|
-----------------------------------------------------------------|
-----------------------------------------------------------------|

PRE-VERSE
--------------------------------------------------------------------|
--------------------------------------------------------------------|
--------------------------------------------------------------------|
--------------------------------------------------------------------|
---------------------------------------------------010-----1310-----|
-0-0010010-0010010-0010010-0010010-0010010-0010010----31013----3101-|
 . ....... ....... ....... ....... ....... ....... ................

---------------------------------------------------------------|
---------------------------------------------------------------|
---------------------------------------------------------------|
---------------------------------------------------------------|
---------------------------------------------------1-0-----3---|
-0-0010010-0010010-0010010-0010010-0010010-0010010-----1-0---1-|
 . ....... ....... ....... ....... ....... .......


VERSE
------------------------------|
------------------------------|
-8------8------8------8-8-8-8-|
-7------7------7------7-7-7-7-|
-5------5------5------5-5-5-5-|
--000000-000000-000000--------| 3x
  ...... ...... ......

------------------------------|
------------------------------|
-8------8------8------8-------|
-7------7------7-0-0--7-0-0---|
-5------5------5-0-0--5-0-0---|
--000000-000000--0-0----0-0---|
  ...... ......  . .    . .


PRE-CHORUS
--------------------------|
--------------------------|
-------5-----------5------|
-1-0-0-5-0-0-1-0-0-500-00-|
-1-0-0-3-0-0-1-0-0-300-00-|
-1-0-0---0-0-1-0-0--00-00-| 4x
   . .   . .   . .  .. ..

CHORUS
guitar 1
-------------------------|
-------------------------|
-------5-----------------|
-1-0-0-5-0-0-1-0-1-0-----|
-1-0-0-3-0-0-1-0-1-0-----|
-1-0-0---0-0-1-0-1-0-----| 3x

-------------------------|
-------------------------|
-------5-----------------|
-1-0-0-5-0-0-1-0-1-0-1-0-|
-1-0-0-3-0-0-1-0-1-0-1-0-|
-1-0-0---0-0-1-0-1-0-1-0-|


guitar 2
---------------------|
---------------------|
-5-7-5-7-5-7-8-5-8-7-|
---------------------|
---------------------|
---------------------| 4x


Pre-Verse
Verse
Pre-Chorus
Chorus


---------------|
---------------|
-------8888888-|
-0-0-0-7777777-|
-0-0-0-5555555-|
-0-0-0---------| 15x
 . . .

----------------|
----------------|
-8------8-------|
-7-0-0--7-0-0---|
-5-0-0--5-0-0---|
---0-0----0-0---|
   . .    . .


Pre-Chorus


OUTRO
guitar 1
-------------------------|
-------------------------|
-------5-----------------|
-1-0-0-5-0-0-1-0-1-0-----|
-1-0-0-3-0-0-1-0-1-0-----|
-1-0-0---0-0-1-0-1-0-----| 4x

guitar 2
---------------------|
---------------------|
-5-7-5-7-5-7-8-5-8-7-|
---------------------|
---------------------|
---------------------| 4x
Tap to rate this tab
# A B C D E F G H I J K L M N O P Q R S T U V W X Y Z