Song name
# A B C D E F G H I J K L M N O P Q R S T U V W X Y Z

Ill Nino - If You Still Hate Me tab

Guitar 1  - INTRO -
D|------------------------------------------------------------------------------|
A|------------------------------------------------------------------------------|
F|------------------------------------------------------------------------------|
C|--0-0-------------------------------------------------------------------------|
G|--0-0----let Ring out--------Repeat 4x----------------------------------------|
C|--0-0-------------------------------------------------------------------------|

  Guitar 2  - INTRO - (listen carefully to this part to get the fast ryhthm)
D|------------------------------------------------------------------------------|
A|------------------------------------------------------------------------------|
F|--7-7-x-x-x-x-10-9-9-9-x-x-x-x-12-10-10-10--x-x-x-x-14-14-12-12-12-10-10------|
C|--x-x-x-x-x-x-x--x-x-x-x-x-x-x-x---x--x--x--x-x-x-x-x--x--x--x--x--x--x-------|
G|--5-5-x-x-x-x-8--7-7-7-x-x-x-x-10--8--8--8--x-x-x-x-12-12-10-10-11-8--8-------|
C|-------------------------------------------------------------------Repeat 
4x--|

  Guitar 1  - SECOND INTRO/PRE VERSE -
D|------------------------------------------------------------------------------|
A|------------------------------------------------------------------------------|
F|------------------------------------------------------------------------------|
C|--1-0-1-1-0-1-1-0-1-1-0-1--3--------------------------------------------------|
G|--1-0-1-1-0-1-1-0-1-1-0-1--3---Repeat 4x--------------------------------------|
C|--1-0-1-1-0-1-1-0-1-1-0-1--3--------------------------------------------------|

  Guitar 2  - SECOND INTRO/PRE VERSE -
D|------------------------------------------------------------------------------|
A|------------------------------------------------------------------------------|
F|------------------------------------------------------------------------------|
C|--1-0-1-1-0-1-1-0-1-1-0-1--3--------------------------------------------------|
G|--1-0-1-1-0-1-1-0-1-1-0-1--3---Repeat 4x--------------------------------------|
C|--1-0-1-1-0-1-1-0-1-1-0-1--3--------------------------------------------------|

  Guitar 1  - VERSE -                                        (use a wah on 
this part)
D|-------------------------------|----------------------------------------------------------------------------|
A|-------------------------------|---(last time)--------------------------------------------------------------|
F|-------------------------------|----------------------------------------------------------------------------|
C|--1-0------1-1-0---------------|-1-0-----1-0-0-0-0-0-0-0-0----8-8-8-10-10-10-12-12-12-13-13-13-13-13-13-13--|
G|--1-0------1-1-0--Repeat 3x----|-1-0-----1-0-0-0-0-0-0-0-0--------------------------------------------------|
C|--1-0------1-1-0---------------|-1-0-----1-0-0-0-0-0-0-0-0--------------------------------------------------|
                                            . . . . . . . .
  Guitar 2  - VERSE -
D|-------------------------------|---------------------------------------------------------------|
A|-------------------------------|---(last time)-------------------------------------------------|
F|-------------------------------|---------------------------------------------------------------|
C|--1-0------1-1-0---------------|-1-0-----1-0-0-0-0-0-0-0-0----8-8-8-8-8-8-8-8-8-8-8-8-8-8-8-8--|
G|--1-0------1-1-0--Repeat 3x----|-1-0-----1-0-0-0-0-0-0-0-0----8-8-8-8-8-8-8-8-8-8-8-8-8-8-8-8--|
C|--1-0------1-1-0---------------|-1-0-----1-0-0-0-0-0-0-0-0----8-8-8-8-8-8-8-8-8-8-8-8-8-8-8-8--|
                                            . . . . . . . .
  Guitar 1  - CHORUS -                                                       
                     (use a wah on this part)
D|----------5-------------------5----------------------|----------5-------------------5--------|------------------------------------------------|
A|-----------------------------------------------------|---------------------------------------|------------------------------------------------|
F|-----------------------------------------------------|---------------------------------------|------------------------------------------------|
C|-----------------------------------------------------|---------------------------------------|--8-8-8-10-10-10-12-12-12-13-13-13-13-13-13-13--|
G|-------------------------------------------Repeat 3x-|---------------------------------------|------------------------------------------------|
C|--1-0-0-0---0-0-3-1-0-1-0-0-0---0-0-1-0--------------|--1-0-0-0---0-0-3-1-0-1-0-0-0---0-0-0--|------------------------------------------------|

  Guitar 2  - CHORUS -
D|----------5-------------------5----------------------|----------5-------------------5--------|-----------------------------------|
A|-----------------------------------------------------|---------------------------------------|-----------------------------------|
F|-----------------------------------------------------|---------------------------------------|-----------------------------------|
C|-----------------------------------------------------|---------------------------------------|--8-8-8-8-8-8-8-8-8-8-8-8-8-8-8-8--|
G|-------------------------------------------Repeat 3x-|---------------------------------------|--8-8-8-8-8-8-8-8-8-8-8-8-8-8-8-8--|
C|--1-0-0-0---0-0-3-1-0-1-0-0-0---0-0-1-0--------------|--1-0-0-0---0-0-3-1-0-1-0-0-0---0-0-0--|--8-8-8-8-8-8-8-8-8-8-8-8-8-8-8-8--|

  Guitar 1  - PRE VERSE -
D|------------------------------------------------------------------------------|
A|------------------------------------------------------------------------------|
F|------------------------------------------------------------------------------|
C|--1-0-1-1-0-1-1-0-1-1-0-1--3--------------------------------------------------|
G|--1-0-1-1-0-1-1-0-1-1-0-1--3---Repeat 2x--------------------------------------|
C|--1-0-1-1-0-1-1-0-1-1-0-1--3--------------------------------------------------|

  Guitar 2  - PRE VERSE -
D|------------------------------------------------------------------------------|
A|------------------------------------------------------------------------------|
F|------------------------------------------------------------------------------|
C|--1-0-1-1-0-1-1-0-1-1-0-1--3--------------------------------------------------|
G|--1-0-1-1-0-1-1-0-1-1-0-1--3---Repeat 2x--------------------------------------|
C|--1-0-1-1-0-1-1-0-1-1-0-1--3--------------------------------------------------|


  Guitar 1  - VERSE -                                    (use a wah on this 
part)
D|-------------------------------|--------------------------------------------------------------------------|
A|-------------------------------|---(last time)------------------------------------------------------------|
F|-------------------------------|--------------------------------------------------------------------------|
C|--1-0------1-1-0---------------|-1-0-----1-0-0-0-0-0-0-0-0--8-8-8-10-10-10-12-12-12-13-13-13-13-13-13-13--|
G|--1-0------1-1-0--Repeat 3x----|-1-0-----1-0-0-0-0-0-0-0-0------------------------------------------------|
C|--1-0------1-1-0---------------|-1-0-----1-0-0-0-0-0-0-0-0------------------------------------------------|
                                            . . . . . . . .
Guitar 2  - VERSE -
D|-------------------------------|-------------------------------------------------------------|
A|-------------------------------|---(last time)-----------------------------------------------|
F|-------------------------------|-------------------------------------------------------------|
C|--1-0------1-1-0---------------|-1-0-----1-0-0-0-0-0-0-0-0--8-8-8-8-8-8-8-8-8-8-8-8-8-8-8-8--|
G|--1-0------1-1-0--Repeat 3x----|-1-0-----1-0-0-0-0-0-0-0-0--8-8-8-8-8-8-8-8-8-8-8-8-8-8-8-8--|
C|--1-0------1-1-0---------------|-1-0-----1-0-0-0-0-0-0-0-0--8-8-8-8-8-8-8-8-8-8-8-8-8-8-8-8--|
                                            . . . . . . . .
Guitar 1  - CHORUS -                                                         
                   (use a wah on this part)
D|----------5-------------------5----------------------|----------5-------------------5--------|------------------------------------------------|
A|-----------------------------------------------------|---------------------------------------|------------------------------------------------|
F|-----------------------------------------------------|---------------------------------------|------------------------------------------------|
C|-----------------------------------------------------|---------------------------------------|--8-8-8-10-10-10-12-12-12-13-13-13-13-13-13-13--|
G|-------------------------------------------Repeat 3x-|---------------------------------------|------------------------------------------------|
C|--1-0-0-0---0-0-3-1-0-1-0-0-0---0-0-1-0--------------|--1-0-0-0---0-0-3-1-0-1-0-0-0---0-0-0--|------------------------------------------------|

  Guitar 2  - CHORUS -
D|----------5-------------------5----------------------|----------5-------------------5--------|-----------------------------------|
A|-----------------------------------------------------|---------------------------------------|-----------------------------------|
F|-----------------------------------------------------|---------------------------------------|-----------------------------------|
C|-----------------------------------------------------|---------------------------------------|--8-8-8-8-8-8-8-8-8-8-8-8-8-8-8-8--|
G|-------------------------------------------Repeat 
3x-|---------------------------------------|--8-8-8-8-8-8-8-8-8-8-8-8-8-8-8-8--|
C|--1-0-0-0---0-0-3-1-0-1-0-0-0---0-0-1-0--------------|--1-0-0-0---0-0-3-1-0-1-0-0-0---0-0-0--|--8-8-8-8-8-8-8-8-8-8-8-8-8-8-8-8--|

  Guitar 1  - BRIDGE -
D|------------------------------------------------------------------------------|
A|------------------------------------------------------------------------------|
F|------------------------------------------------------------------------------|
C|--0-0-------------------------------------------------------------------------|
G|--0-0----let Ring out--------Repeat 8x----------------------------------------|
C|--0-0-------------------------------------------------------------------------|

  Guitar 2  - BRIDGE - (listen carefully to this part to get the fast 
ryhthm)
D|------------------------------------------------------------------------------|
A|------------------------------------------------------------------------------|
F|--7-7-x-x-x-x-10-9-9-9-x-x-x-x-12-10-10-10--x-x-x-x-14-14-12-12-12-10-10------|
C|--x-x-x-x-x-x-x--x-x-x-x-x-x-x-x---x--x--x--x-x-x-x-x--x--x--x--x--x--x-------|
G|--5-5-x-x-x-x-8--7-7-7-x-x-x-x-10--8--8--8--x-x-x-x-12-12-10-10-11-8--8-------|
C|-------------------------------------------------------------------Repeat 
8x--|

    Guitar 1  - PRE OUTRO -
D|----------5-------------------5----------------------|----------5-------------------5----------|
A|-----------------------------------------------------|-----------------------------------------|
F|-----------------------------------------------------|-----------------------------------------|
C|-----------------------------------------------------|-----------------------------------------|
G|-------------------------------------------Repeat 7x-|-----------------------------------------|
C|--1-0-0-0---0-0-3-1-0-1-0-0-0---0-0-1-0--------------|--1-0-0-0---0-0-3-1-0-1-0-0-0---0-0-0----|

    Guitar 2  - PRE OUTRO -
Note: The first 2 times that the guitar 1 plays the guitar 2 remains mute, 
when the whole band kicks in
the guitar 2 enters with a scratch and then play this:
D|-----------------------------------------------------|-----------------------------------------|
A|-----------------------------------------------------|-----------------------------------------|
F|-----------------------------------------------------|-----------------------------------------|
C|----------7-------------------7----------------------|----------7-------------------7----------|
G|-------------------------------------------Repeat 5x-|-----------------------------------------|
C|--1-0-0-0---0-0-3-1-0-1-0-0-0---0-0-1-0--------------|--1-0-0-0---0-0-3-1-0-1-0-0-0-7-0-0-0----|

    Guitar 1  - OUTRO -
(use a wah on this part) Repeat 2x
D|------------------------------------------------|-------|
A|------------------------------------------------|-------|
F|------------------------------------------------|-------|
C|--8-8-8-10-10-10-12-12-12-13-13-13-13-13-13-13--|--1-0--|
G|------------------------------------------------|--1-0--|
C|------------------------------------------------|--1-0--|

    Guitar 2  - OUTRO -
                          Repeat 2x
D|------------------------------------------------|-------|
A|------------------------------------------------|-------|
F|------------------------------------------------|-------|
C|--8-8-8-8-8-8-8-8-8-8-8-8-8-8-8-8---------------|--1-0--|
G|--8-8-8-8-8-8-8-8-8-8-8-8-8-8-8-8---------------|--1-0--|
C|--8-8-8-8-8-8-8-8-8-8-8-8-8-8-8-8---------------|--1-0--|
Tap to rate this tab
# A B C D E F G H I J K L M N O P Q R S T U V W X Y Z