Song name
# A B C D E F G H I J K L M N O P Q R S T U V W X Y Z

Ill Nino - Unreal tab

#----------------------------------PLEASE NOTE---------------------------------#
#This file is the author's own work and represents their interpretation of the #
#song. You may only use this file for private study, scholarship, or research. #
#------------------------------------------------------------------------------#

UNREAL
As recorded by Ill Niņo
(From the 2001 Album REVOLUTION/REVOLUCION)

Transcribed by Derek Donaldson
	

Words by Cristian Machado Music by Cristian Machado, Marc Rizzo & Dave Chavarri
Arranged by Ill Niņo

Gtr I (C G C F A D) - 'Marc'
Gtr II (C G C F A D) - 'Jardel'
Gtr III (C G C F A D) - 'Marc Acoustic'

 Intro
  Q=132
 4/4
  Gtr I
                          PM-----------------------------------|
  Wx3          H.      E. S   E E +H.        +H.      E. S   E E H.
|------------|--------------|--------------|---------------|-----------||
|------------|--------------|--------------|---------------|-----------||
|------------|--------------|--------------|---------------|-----------||
|------------|------------3-|-3-2-(2)------|-(2)---------3-|-3-2-------||
|------------|------------3-|-3-2-(2)------|-(2)---------3-|-3-2-------||
|------------|------------3-|-3-2-(2)------|-(2)---------3-|-3-2-------||


   Pre-Verse
    $
    Gtrs I, II
    E. E. E. E. E E   E. E. E. E. E E   E. E. E. E. E E   E. E. E. E. E E
||------------------|-----------------|-----------------|------------------||
||o-----------------|-----------------|-----------------|-----------------o||
||------------------|-----------------|-----------------|------------------||
||--3--2-----3--2---|-3--2-----3--2---|-3--2-----3--2---|-3--2-----3--2----||
||o-3--2--5--3--2-5-|-3--2--5--3--2-5-|-3--2--5--3--2-5-|-3--2--5--3--2-5-o||
||--3--2-----3--2---|-3--2-----3--2---|-3--2-----3--2---|-3--2-----3--2----||


   Verse
    E. E. E +H       +W           E. E. E +H       +W
||-----------------|------------|----------------|---------||
||o----------------|------------|----------------|--------o||
||-----------------|------------|----------------|---------||
||--0--3--2-(2)----|-(2)--------|-0--3--2-(2)----|-(2)-----||
||o-0--3--2-(2)----|-(2)--------|-0--3--2-(2)----|-(2)----o||
||--0--3--2-(2)----|-(2)--------|-0--3--2-(2)----|-(2)-----||


 Pre-Chorus
  E. E. E. E. E E   E. E. E. E. Q    E. E. E. E. E E   E. E. E. E. Q
|-----------------|----------------|-----------------|----------------|
|-----------------|----------------|-----------------|----------------|
|-----------------|----------------|-----------------|----------------|
|-3--2--2--3--2-2-|-3--2--2--3--0--|-3--2--2--3--2-2-|-3--2--2--3--0--|
|-3--2-----3--2---|-3--2-----3--0--|-3--2-----3--2---|-3--2-----3--0--|
|-3--2-----3--2---|-3--2-----3--0--|-3--2-----3--2---|-3--2-----3--0--|


                                                       PM------------|
  E. E. E. E. E E   E. E. E. E. Q    E. E. E. E. E E   E E E E E E E E
|-----------------|----------------|-----------------|------------------||
|-----------------|----------------|-----------------|------------------||
|-----------------|----------------|-----------------|------------------||
|-3--2--2--3--2-2-|-3--2--2--3--0--|-3--2--2--3--2-2-|-2-2-2-2-2-2-2-2--||
|-3--2-----3--2---|-3--2-----3--0--|-3--2-----3--2---|-2-2-2-2-2-2-2-2--||
|-3--2-----3--2---|-3--2-----3--0--|-3--2-----3--2---|-2-2-2-2-2-2-2-2--||


   Chorus
    E E E E E E E E   E E E E E E E E  4x
||------------------|------------------||
||o-----------------|-----------------o||
||------------------|------------------||
||--7-7-7-7-7-7-3-3-|-3-3-3-3-3-3-3-3--||
||o-7-7-7-7-7-7-3-3-|-3-3-3-3-3-3-3-3-o||
||--7-7-7-7-7-7-3-3-|-3-3-3-3-3-3-3-3--||


    G5                  Eb5
    Gtr I
     E E E  E E E E E   E E E E E E E E  3x
||--------------------|------------------||
||o-------------------|-----------------o||
||--------------------|------------------||
||---7-7-7--7-7-7-3-3-|-3-3-3-3-3-3-3-3--||
||o--7-7-7--7-7-7-3-3-|-3-3-3-3-3-3-3-3-o||
||---7-7-7--7-7-7-3-3-|-3-3-3-3-3-3-3-3--||
|
|   Gtr II
|    E E E  E E E E E   E E E E E E E E  3x
||--------------------|------------------||
||o-------------------|-----------------o||
||--10-9-9-10-9-9-5-5-|-5-7-7-5-5-5-5-5--||
||---x-x-x--x-x-x-x-x-|-x-x-x-x-x-x-x-x--||
||o--8-7-7--8-7-7-3-3-|-3-5-5-3-3-3-3-3-o||
||--------------------|------------------||


                     D.S.
   E E E  E E E Q    +W
|------------------|---------||
|------------------|---------||
|------------------|---------||
|--7-7-7--7-7-7-3--|-(3)-----||
|--7-7-7--7-7-7-3--|-(3)-----||
|--7-7-7--7-7-7-3--|-(3)-----||
|
|  E E E  E E E Q    +W
|------------------|---------||
|------------------|---------||
|-10-9-9-10-9-9-5--|-(5)-----||
|--x-x-x--x-x-x-x--|-(x)-----||
|--8-7-7--8-7-7-3--|-(3)-----||
|------------------|---------||


   Breakdown
    Gtr II
    W             +W              +W              +W
||--------------|---------------|---------------|--------------||
||o-------------|---------------|---------------|-------------o||
||--------------|---------------|---------------|--------------||
||--2-----------|-(2)-----------|-(2)-----------|-(2)----------||
||o-2-----------|-(2)-----------|-(2)-----------|-(2)---------o||
||--2-----------|-(2)-----------|-(2)-----------|-(2)----------||
|
|   Gtr III
|   E E H.         E  E H.         E  E H.         E  E H.
||--------------|---------------|---------------|--------------||
||o-------------|---------------|---------------|-------------o||
||------9-------|-------7-------|-------5-------|-------2------||
||----9---------|-----7---------|-----5---------|-----2--------||
||o-7-----------|--5------------|--3------------|--0----------o||
||--------------|---------------|---------------|--------------||


                                  PM--------------------------------|
  W             +W                E E E E E E E E   E E E E E +E  E +E
|-------------|-----------------|-----------------|----------------------||
|-------------|-----------------|-----------------|----------------------||
|-------------|-----------------|-----------------|----------------------||
|-2-----------|-(2)-------------|-2-2-2-2-2-2-2-2-|-2-2-2-2-2-(2)-2-(2)--||
|-2-----------|-(2)-------------|-2-2-2-2-2-2-2-2-|-2-2-2-2-2-(2)-2-(2)--||
|-2-----------|-(2)-------------|-2-2-2-2-2-2-2-2-|-2-2-2-2-2-(2)-2-(2)--||
|
|                                 Gtr I
|                                 PM--------------------------------|
| E E H.         E   E  H.        E E E E E E E E   E E E E E +E  E +E
|-------------|-----------------|-----------------|----------------------||
|-------------|-----------------|-----------------|----------------------||
|-----9-------|--------11-------|-----------------|----------------------||
|---9---------|-----11----------|-2-2-2-2-2-2-2-2-|-2-2-2-2-2-(2)-2-(2)--||
|-7-----------|--9--------------|-2-2-2-2-2-2-2-2-|-2-2-2-2-2-(2)-2-(2)--||
|-------------|-----------------|-2-2-2-2-2-2-2-2-|-2-2-2-2-2-(2)-2-(2)--||


   Chorus
    Gtrs I, II
    E E E E E E E E   E E E E E E E E  4x
||------------------|------------------||
||o-----------------|-----------------o||
||------------------|------------------||
||--7-7-7-7-7-7-3-3-|-3-3-3-3-3-3-3-3--||
||o-7-7-7-7-7-7-3-3-|-3-3-3-3-3-3-3-3-o||
||--7-7-7-7-7-7-3-3-|-3-3-3-3-3-3-3-3--||


    Gtr I
     E E E  E E E E E   E E E E E E E E  4x
||--------------------|------------------||
||o-------------------|-----------------o||
||--------------------|------------------||
||---7-7-7--7-7-7-3-3-|-3-3-3-3-3-3-3-3--||
||o--7-7-7--7-7-7-3-3-|-3-3-3-3-3-3-3-3-o||
||---7-7-7--7-7-7-3-3-|-3-3-3-3-3-3-3-3--||
|
|   Gtr II
|    E E E  E E E E E   E E E E E E E E  4x
||--------------------|------------------||
||o-------------------|-----------------o||
||--10-9-9-10-9-9-5-5-|-5-7-7-5-5-5-5-5--||
||---x-x-x--x-x-x-x-x-|-x-x-x-x-x-x-x-x--||
||o--8-7-7--8-7-7-3-3-|-3-5-5-3-3-3-3-3-o||
||--------------------|------------------||


   Outro
    Gtrs I, II
    E E E E E E Q    +E  E +Q   E E +Q    3x
||-----------------|----------------------||
||o----------------|---------------------o||
||-----------------|----------------------||
||--7-7-7-7-7-7-3--|-(3)-3-(3)--3-3-(3)---||
||o-7-7-7-7-7-7-3--|-(3)-3-(3)--3-3-(3)--o||
||--7-7-7-7-7-7-3--|-(3)-3-(3)--3-3-(3)---||


  E E E E E E Q    +W
|----------------|--------*|
|----------------|--------*|
|----------------|--------*|
|-7-7-7-7-7-7s3--|-(3)----*|
|-7-7-7-7-7-7s3--|-(3)----*|
|-7-7-7-7-7-7s3--|-(3)----*|



Duration Legend
---------------
W - whole; H - half; Q - quarter; E - 8th; S - 16th; T - 32nd; X - 64th; a - acciaccatura
+ - note tied to previous; . - note dotted; .. - note double dotted
Uncapitalized letters represent notes that are staccato (1/2 duration)
Irregular groupings are notated above the duration line
Duration letters will always appear directly above the note/fret number it represents the
duration for.  Duration letters with no fret number below them represent rests.  Multi-
bar rests are notated in the form Wxn, where n is the number of bars to rest for.  Low
melody durations appear below the staff

Tablature Legend
----------------
 h   - hammer-on
 p   - pull-off
 b   - bend
 pb  - pre-bend
 r   - bend release (if no number after the r, then release immediately)
 /\  - slide into or out of (from/to "nowhere")
 s   - legato slide
 S   - shift slide
 - natural harmonic
[n]  - artificial harmonic
n(n) - tapped harmonic
 ~   - vibrato
 tr  - trill
 T   - tap
 TP  - trem. picking
 PM  - palm muting
\n/  - tremolo bar dip; n = amount to dip
 \n  - tremolo bar down
 n/  - tremolo bar up
/n\  - tremolo bar inverted dip
 =   - hold bend; also acts as connecting device for hammers/pulls
 <> - volume swell (louder/softer)
 x   - on rhythm slash represents muted slash
 o   - on rhythm slash represents single note slash

Misc Legend
-----------
 |  - bar
||  - double bar
||o - repeat start
o|| - repeat end
*|  - double bar (ending)
 :  - bar (freetime)
 $  - Segno
 &  - Coda
Tempo markers -  = BPM(8/16=s8/s16), where s8 = swing 8ths, s16 = swing 16ths

Tap to rate this tab
# A B C D E F G H I J K L M N O P Q R S T U V W X Y Z