Song name
# A B C D E F G H I J K L M N O P Q R S T U V W X Y Z

Ill Nino - Rip Out Your Eyes tab

Ill Nino: Rip Out Your Eyes

Transcribed by: Andrew Zara (disturbedfreak0520@yahoo.com)

Date last modified: May 30, 2007

PLEASE DO NOT COPY THIS TAB TO ANOTHER SITE
WITHOUT AUTHORS' PERMISSION. THANK YOU.

Tuning: Drop C (C,G,C,F,A,D)

Riff 1
Guitar 1
D|----------------------------------------------------------------------|
A|----------------------------------------------------------------------|
F|----------------------------------------------------------------------|
C|----------------------------------------------------------------------|
G|----------------------------------------------------------------------|
C|-12-12-0--12-13-0--12-12-0-12-13-0--12-12-0--12-13-0--12-12-0-12-13-0-|

Riff 1
Guitar 2 (enters after Guitar 1 plays above 4 times.)
D|----------------------------------------------------------------------|
A|----------------------------------------------------------------------|
F|----------------------------------------------------------------------|
C|----------------------------------------------------------------------|
G|----------------------------------------------------------------------|
C|-12-12-0--12-13-0--12-12-0-12-13-0--12-12-0--12-13-0--12-12-0-12-13-0-|

Riff 1a   "...it takes to..."
D|------------------------------------------------------------------|
A|------------------------------------------------------------------|
F|------------------------------------------------------------------|
C|------------------------------------------------------------------|
G|------------------------------------------------------0-0-0-0-0-0-|
C|-12-12-0--12-13-0--12-12-0-12-13-0--12-12-0--12-13-0--0-0-0-0-0-0-|
                                                        * * * * * *

Riff 1b   "If we keep on this way..."
D|--------------------------------------------------------|
A|--------------------------------------------------------|
F|--------------------------------------------------------|
C|--------------------------------------------------------|
G|------------------------------------------------------0-|
C|-12-12-0--12-13-0--12-12-0-12-13-0--12-12-0--12-13-0--0-|

Play Riff 1

Riff 2   "All these pictures..."
D|-8--8--8--8--8--8--8--8--8--8--8--8--|
A|-10-10-10-10-10-10-10-10-10-10-10-10-|
F|-10-10-10-10-10-10-10-10-10-10-10-10-|
C|-8--8--8--8--8--8--8--8--8--8--8--8--|
G|-8--8--8--8--8--8--8--8--8--8--8--8--|
C|-8--8--8--8--8--8--8--8--8--8--8--8--|

Keep alternating Riff 1 and Riff 2

Riff 3   "Rip out your eyes!"
D|----------------------------|
A|--------------------------2-|
F|----------------------------|
C|----------------------------|
G|-0-0-1--0-0-1--0-0-1--0-1---|
C|-0-0-1--0-0-1--0-0-1--0-1---|
                            a

Play Riff 1a
Play Riff 1b
Keep alternating Riff 1 and Riff 2
Play Riff 3   "Rip out your eyes!"

Riff 4 (Solo backing)
Guitar 1
D|----------------------------|
A|----------------------------|
F|----------------------------|
C|----------------------------|
G|-0-0-1--0-0-1--0-0-1--0-0-1-|
C|-0-0-1--0-0-1--0-0-1--0-0-1-|

Riff 4 (Solo)  "The sun...it's on..."
Guitar 2
D|-------------------------------------|
A|-------------------------------------|
F|-14-14-14-14-14-14-15-15-15-15-15-15-|
C|-x--x--x--x--x--x--x--x--x--x--x--x--|
G|-12-12-12-12-12-12-13-13-13-13-13-13-|
C|-------------------------------------|

D|-------------------------------------|
A|-------------------------------------|
F|-17-17-17-17-17-17-19-19-19-19-19-19-|
C|-x--x--x--x--x--x--x--x--x--x--x--x--|
G|-15-15-15-15-15-15-17-17-17-17-17-17-|
C|-------------------------------------|

Riff 5
Guitar 1
D|---------|
A|---------|
F|---------|
C|---------|
G|-0-------|
C|-0-------|


Notation:

10^        = bend a quarter step.
10b11      = bend a half step.
10b12      = bend a full step.
10b12r10   = bend and release.
[10]12     = pre-bend.
[10]12r10  = pre-bend and release.
{14}       = pick the 14th fret while holding the most 
             previous bend.
<17>       = touch the string above the 17th fret while 
             previous note(s) is(are) still ringing.

10b13*     = tremolo bar bend, from the 10th fret to the 13th fret.
7d4*       = tremolo bar dive, from the 7th fret to the 4th fret. 
12~*       = tremolo bar vibrato.

x   =  mute with fret-hand
*   =  palm mute
X\\ =  pick slide
h   =  hammer-on
p   =  pull-off
~   =  vibrato
t   =  finger tap
/   =  slide up
\   =  slide down
h.  =  natural harmonics
a   =  artificial harmonics
(9) =  ghost note
tm  =  trem picking
tr  =  trill




Tap to rate this tab
# A B C D E F G H I J K L M N O P Q R S T U V W X Y Z