Song name
# A B C D E F G H I J K L M N O P Q R S T U V W X Y Z

Ill Nino - Disposal tab

Ill Nino - Disposal
Submitted By: Derek Donaldson
EMail: zero_hour_666@msn.com


This song is a demo and its the old version of predisposed :D

x = mute
. = palm mute

Intro (behind samples)
-----
-----
-----
-----
--0--
--0--

Killer Riff #1
------------------------------------------------------
------------------------------------------------------
------------------------------------------------------
------------------------------------------------------
--0-0--12-12-12-12h13p12-10--12-12-12-13-13-10-10-10--
--0-0--12-12-12-12h13p12-10--12-12-12-13-13-10-10-10--

Verse
-------------------------------------------------------
-------------------------------------------------------
-------------------------------------------------------
-------------------------------------------------------
--0-0-0--0-0-0-0-0-0-0-0--0-0-0--0-0-------------------
--0-0-0--0-0-0-0-0-0-0-0--0-0-0--0-0--0h1-1-1-1h3-3-3--
  . .    . . . . . . . .  . .    . .

-------------------------------------------------------
-------------------------------------------------------
-------------------------------------------------------
-------------------------------------------------------
--0-0-0--0-0-0-0-0-0-0-0--0-0-0--0-0-------------------
--0-0-0--0-0-0-0-0-0-0-0--0-0-0--0-0--3p1-1-1-1h3-3-3--
  . .    . . . . . . . .  . .    . .

Chorus (Gtr 1)
-------------------------------------------------------------------------
-------------------------------------------------------------------------
-------------------------------------------------------------------------
--8-8-8-8-8-8-8-8-8-8-8-8--12-12-12-12--5-5-5-5-5-5-5-5-5-5-5-5-5-5-5-5--
--8-8-8-8-8-8-8-8-8-8-8-8--12-12-12-12--5-5-5-5-5-5-5-5-5-5-5-5-5-5-5-5--
--8-8-8-8-8-8-8-8-8-8-8-8--12-12-12-12--5-5-5-5-5-5-5-5-5-5-5-5-5-5-5-5--


Chorus (Gtr 2)
---------------------------------------------------
---------------------------------------------------
--15-------15-------15-------15-------15-------15--
-----12-12----12-12----12-12----12-12----12-12-----
---------------------------------------------------
---------------------------------------------------

---------------------------------------------------
---------------------------------------------------
--14-------14-------14-------14-------14-------14--
-----12-12----12-12----12-12----12-12----12-12-----
---------------------------------------------------
---------------------------------------------------

I can't figure the bridge out :(

End of Bridge
-----------------------------------
-----------------------------------
-----------------------------------
--5-5-5-5-5-5-3-3-3-3-3-3-3-3-3-3--
--5-5-5-5-5-5-3-3-3-3-3-3-3-3-3-3--
--5-5-5-5-5-5-3-3-3-3-3-3-3-3-3-3--
  . . . . . . . . . 

Outro
--------------
--------------
--------------
--12-12----5--
--12-12----5--
--12-12----5--

E-mail me questions :D
Tap to rate this tab
# A B C D E F G H I J K L M N O P Q R S T U V W X Y Z