Song name
# A B C D E F G H I J K L M N O P Q R S T U V W X Y Z

Ill Nino - This Times For Real tab

Intro:  ( keyboard at start)

(high part)
D|---------------20-20-20----------21-21-21----------20-20------------|
A|------------------------18-18-18----------18-18-18-------18-18------|
F|--------------------------------------------------------------------|
C|--------------------------------------------------------------------| x 3
G|--------------------------------------------------------------------|
C|--------------------------------------------------------------------|

then...

D|---21-21-21-20-20-20----------------|
A|------------------------------------|
F|---------------------19~------------|
C|------------------------------------|
G|------------------------------------|
C|------------------------------------|

(low part)                            end on this 3rd time 
                                         \/
D|-----------------------------------|-------------------------------|
A|-----------------------------------|-------------------------------|
F|-----------------------------------|-------------------------------|
C|--7-7-7-7-10-3-3-3-3-3-5-3-3-3-----|----7~-------------------------| x 3
G|--7-7-7-7-10-3-3-3-3-3-5-3-3-3-----|----7~-------------------------|
C|--7-7-7-7-10-3-3-3-3-3-5-3-3-3-----|----7~-------------------------|

Verse:

D|------------------------------         |---------------------------|
A|------------------------------         |---------------------------|
F|------------------------------         |---------------------------|
C|---7-7-7-10-3-3-3-3-3-5-3-3-3-         |-5~------------------------|
G|---7-7-7-10-3-3-3-3-3-5-3-3-3- x 3 then|-5~------------------------|
C|---7-7-7-10-3-3-3-3-3-5-3-3-3-         |-5~------------------------|

D|------------------------------         |-----------------------------|
A|------------------------------         |-----------------------------|
F|------------------------------         |-----------------------------|
C|---7-7-7-10-3-3-3-3-3-5-3-3-3-         |-5~-7~-----------------------|
G|---7-7-7-10-3-3-3-3-3-5-3-3-3- x 3 then|-5~-7~-----------------------|
C|---7-7-7-10-3-3-3-3-3-5-3-3-3-         |-5~-7~-----------------------|

Chorus:

D|-----------------------------------------|
A|-----------------------------------------|
F|-----------------------------------------|
C|-0~---3-3-3-3-3-3-3--5-5-5-5-5-5-5--3~---|  x 2
G|-0~---3-3-3-3-3-3-3--5-5-5-5-5-5-5--3~---|
C|-0~---3-3-3-3-3-3-3--5-5-5-5-5-5-5--3~---|


Verse:

D|------------------------------         |---------------------------|
A|------------------------------         |---------------------------|
F|------------------------------         |---------------------------|
C|---7-7-7-10-3-3-3-3-3-5-3-3-3-         |-5~------------------------|
G|---7-7-7-10-3-3-3-3-3-5-3-3-3- x 3 then|-5~------------------------|
C|---7-7-7-10-3-3-3-3-3-5-3-3-3-         |-5~------------------------|

D|------------------------------         |-----------------------------|
A|------------------------------         |-----------------------------|
F|------------------------------         |-----------------------------|
C|---7-7-7-10-3-3-3-3-3-5-3-3-3-         |-5~-7~-----------------------|
G|---7-7-7-10-3-3-3-3-3-5-3-3-3- x 3 then|-5~-7~-----------------------|
C|---7-7-7-10-3-3-3-3-3-5-3-3-3-         |-5~-7~-----------------------|

Chorus:

D|-----------------------------------------|
A|-----------------------------------------|
F|-----------------------------------------|
C|-0~---3-3-3-3-3-3-3--5-5-5-5-5-5-5--3~---|  x 2
G|-0~---3-3-3-3-3-3-3--5-5-5-5-5-5-5--3~---|
C|-0~---3-3-3-3-3-3-3--5-5-5-5-5-5-5--3~---|


Solo: 

D|------5h7-7h8p7p5---------5h7-7h8-8p7-7p5----------------|
A|-5-5-----------------5-5---------------------------------|
F|---------------------------------------------------------|
C|---------------------------------------------------------| x 4
G|---------------------------------------------------------|
C|---------------------------------------------------------|

D|-8-8-8-8-5-5--7h8p7----5--7h8p7----5^-8^--7h8p7-|
A|--------------------8------------8--------------|
F|------------------------------------------------|
C|------------------------------------------------|
G|------------------------------------------------|
C|------------------------------------------------|

D|---5--7h8p7----5-8h10p8-7h8p7h8p7p5-|
A|-8-----------8----------------------|
F|------------------------------------|
C|------------------------------------|
G|------------------------------------|
C|------------------------------------|

D|--------------------------------------------|
A|-13-13-13-13-12-12-13--13-13-13-13-12-13-10-|
F|-14-14-14-14-12-12-14--14-14-14-14-12-14-10-|
C|-14-14-14-14-12-12-14--14-14-14-14-12-13-10-|
G|--------------------------------------------|
C|--------------------------------------------|

D|---------------------------------------------------------|
A|---------------------------------------------13-15-17-17-|
F|---------------------------------------------14-16-17-17-|
C|----12h14p12------12--12h14p12----12---------------------|
G|-14------------14--------------------14------------------|
C|---------------------------------------------------------|


Chorus:

D|-----------------------------------------|
A|-----------------------------------------|
F|-----------------------------------------|
C|-0~---3-3-3-3-3-3-3--5-5-5-5-5-5-5--3~---|  x 2
G|-0~---3-3-3-3-3-3-3--5-5-5-5-5-5-5--3~---|
C|-0~---3-3-3-3-3-3-3--5-5-5-5-5-5-5--3~---|

Outro:

D|-----------------------------------------|
A|-----------------------------------------|
F|-----------------------------------------|
C|-0~---3-3-3-3-3-3-3--5-5-5-5-5-5-5--3~---|  x 2
G|-0~---3-3-3-3-3-3-3--5-5-5-5-5-5-5--3~---|
C|-0~---3-3-3-3-3-3-3--5-5-5-5-5-5-5--3~---|

End on this:

D|------|
A|------|
F|------|
C|-0~---|
G|-0~---|
C|-0~---|


there you go!
Please Rate!

Tap to rate this tab
# A B C D E F G H I J K L M N O P Q R S T U V W X Y Z