Song name
# A B C D E F G H I J K L M N O P Q R S T U V W X Y Z

Ill Nino - When It Cuts tab

Help us improve GuitareTab! Take a short survey!
Ill Nino: When It Cuts

Transcribed by: Andrew Zara (disturbedfreak0520@yahoo.com)

Date last modified: May 20, 2007

PLEASE DO NOT COPY THIS TAB TO ANOTHER SITE
WITHOUT AUTHORS' PERMISSION. THANK YOU.

Tuning: Drop C (C,G,C,F,A,D)

Riff 1
D|---------------------------------------------------------|
A|---------------------------------------------------------|
F|---------------------------------------------------------|
C|-------5-5-5-5-5-----4-4-4-4-------5-5-5-5-5-----4-4-4-4-|
G|-2-0-2-----------2-0---------2-0-2-----------2-0---------|
C|-2-0-2-----------2-0---------2-0-2-----------2-0---------|
   * *             *           * *             *
D|---------------------------------------------------------|
A|---------------------------------------------------------|
F|---------------------------------------------------------|
C|-------5-5-5-5-5-----4-4-4-4-------4-4-4-4-4-----5-5-5/7-|
G|-2-0-2-----------2-0---------0-0-0-----------0-0---------|
C|-2-0-2-----------2-0---------0-0-0-----------0-0---------|
   * *             *           * *             *

Riff 2   "I cannot..."
Guitar 1
D|-----------------------------------------------------------------|
A|-----------------------------------------------------------------|
F|-----------------------------------------------------------------|
C|---------5-5-5-5-5-------4-4-4-4---------5-5-5-5-5-------4-4-4-4-|
G|-----------------------------------------------------------------|
C|-2-0-2-2-----------2-0-0---------2-0-2-2-----------2-0-0---------|
   * * * * * * * * * * * * * * * * * * * * * * * * * * * * * * * *
D|-----------------------------------------------------------------|
A|-----------------------------------------------------------------|
F|-----------------------------------------------------------------|
C|---------5-5-5-5-5-------4-4-4-4---------4-4-4-4-4-------5-5-5/7-|
G|-----------------------------------------------------------------|
C|-2-0-2-2-----------2-0-0---------0-0-0-0-----------0-0-0---------|
   * * * * * * * * * * * * * * * * * * * * * * * * * * * *

Riff 2
Guitar 2
D|------------------------------------------|
A|-8--7--8-7--8--7--8-7--8--7--8-7--8--7--8-|
F|------------------------------------------|
C|------------------------------------------|
G|------------------------------------------|
C|------------------------------------------|

Play Riff 1   "Then I will..."

Riff 1 Ending   "...anything you say."
D|------|
A|------|
F|------|
C|-0----|
G|-0----|
C|-0----|

Riff 3   "When it cuts..."
D|------------------------------------------0----0-|
A|------------------------------------------3----3-|
F|-----------------------------------7--7-7-2----2-|
C|-----------------------------------5--5-5-0--0-0-|
G|-----------------------------------5--5-5-0--0-0-|
C|-0-2-2-2-0-2-2-2-0-2-2-2-0-2-2-2-0-5--5-5-0--0---|

Play Riff 1   "Again..."
Play Riff 2   "For I'm right..."
Play Riff 1   "Just in case..."
Play Riff 1 Ending
Play Riff 3   "When it cuts..."

Riff 4   "Again..."
Guitar 1
D|--------------|
A|--------------|
F|--------------|
C|--------------|
G|-2----2-2-0-2-|
C|-2----2-2-0-2-|
   *    * * * *

Riff 4
Guitar 2
D|-0~-----------|
A|-3~-----------|
F|-2~-----------|
C|-0~-----------|
G|-0~-----------|
C|--------------|

Riff 5   "I can't go on..."
D|-------------------------|
A|-------------------------|
F|-------------------------|
C|-------------------------|   
G|-2--0-2-0-2--3-3-3-3-3-3-|
C|-2--0-2-0-2--3-3-3-3-3-3-|
               * * * * * *

Riff 6   "...save me from myself..."
D|------------------|
A|------------------|
F|-------------7----|
C|-------------5--0-|
G|-2--0-2-0-2--5--0-|
C|-2--0-2-0-2--5--0-|

Riff 5   "...myself..."
Guitar 2
D|-------------------------------------------------|
A|-12-12-12-12-12-12-12-12-12-12-12-12-12-12-12-12-|
F|-------------------------------------------------|
C|-------------------------------------------------|
G|-------------------------------------------------|
C|-------------------------------------------------|

D|-------------------------------------------------|
A|-10-10-10-10-10-10-10-10-10-10-10-10-10-10-10-10-|
F|-------------------------------------------------|
C|-------------------------------------------------|
G|-------------------------------------------------|
C|-------------------------------------------------|

D|-------------------------------------------------|
A|-8-8-8-8-8-8-8-8-8-8-8-8-8-8-8-8-5-5-5-5-5-5-5-5-|
F|-------------------------------------------------|
C|-------------------------------------------------|
G|-------------------------------------------------|
C|-------------------------------------------------|

Play Riff 3   "When it cuts..."
Play Riff 1   "Again..."

Riff 7
D|-----------------|
A|-----------------|
F|-----------------|
C|-----------------|
G|-0--0--0~--------|
C|-0--0--0~--------|


Notation:

10^        = bend a quarter step.
10b11      = bend a half step.
10b12      = bend a full step.
10b12r10   = bend and release.
[10]12     = pre-bend.
[10]12r10  = pre-bend and release.
{14}       = pick the 14th fret while holding the most 
             previous bend.
<17>       = touch the string above the 17th fret while 
             previous note(s) is(are) still ringing.

10b13*     = tremolo bar bend, from the 10th fret to the 13th fret.
7d4*       = tremolo bar dive, from the 7th fret to the 4th fret. 
12~*       = tremolo bar vibrato.

x   =  mute with fret-hand
*   =  palm mute
X\\ =  pick slide
h   =  hammer-on
p   =  pull-off
~   =  vibrato
t   =  finger tap
/   =  slide up
\   =  slide down
h.  =  natural harmonics
a   =  artificial harmonics
(9) =  ghost note
tm  =  trem picking
tr  =  trill


Related for When It Cuts tab