Song name
# A B C D E F G H I J K L M N O P Q R S T U V W X Y Z

Ill Nino - Two Vaya Con Dios tab

Band- Ill Nino
Song- Two Vaya Con Dios

TUNED: drop C   (C,G,C,F,A,D)


----------------------------
INTRO (effect: wah)

|------------------------------|
|------------------------------|
|------------------------------|
|------------------------------|
|-5---5-6-5----5-6-5---5-6-5---|
|------------------------------|  3x


VERSE 1

|---------|---------|----------|---------|
|---------|---------|----------|---------|
|---------|---------|----------|-----8-8-|
|---7-8---|---------|-10-7-8-7-|---------|
|-5-------|---------|----------|---------|
|---------|---------|----------|---------|  2x

|---------------|---------------|---------------|---------------|
|---------------|---------------|---------------|---------------|
|-8-------------|-8-------------|-8-------------|---------------|
|-6-0-0---0-1-0-|-6-0-0---0-1-0-|-6-0-0---0-1-0-|-3-------1-----|
|-6-0-0---0-1-0-|-6-0-0---0-1-0-|-6-0-0---0-1-0-|-3-------1-----|
|---0-0---0-1-0-|---0-0---0-1-0-|---0-0---0-1-0-|-3-3-3---1-1-1-|   2x

|---------|---------|----------|---------|
|---------|---------|----------|---------|
|---------|---------|----------|-----8-8-|
|---7-8---|---------|-10-7-8-7-|---------|
|-5-------|---------|----------|---------|
|---------|---------|----------|---------|  2x

|---------------|---------------|---------------|---------------|
|---------------|---------------|---------------|---------------|
|-8-------------|-8-------------|-8-------------|---------------|
|-6-0-0---0-1-0-|-6-0-0---0-1-0-|-6-0-0---0-1-0-|-3-3-3---1-1-1-|
|-6-0-0---0-1-0-|-6-0-0---0-1-0-|-6-0-0---0-1-0-|-3-3-3---1-1-1-|
|---0-0---0-1-0-|---0-0---0-1-0-|---0-0---0-1-0-|-3-3-3---1-1-1-|   2x


CHORUS 1

|------------------------|----------------------|------------------------|---------------|
|------------------------|----------------------|------------------------|---------------|
|------------------------|----------------------|------------------------|---------------|
|-12-12-12-12-12-13-10---|-13-13-13-15-13-13-15-|-12-12-12-12-12-13-10---|-10-10-8-8-7-7-|
|-12-12-12-12-12-13-10---|-13-13-13-15-13-13-15-|-12-12-12-12-12-13-10---|-10-10-8-8-7-7-|
|-12-12-12-12-12-13-10---|-13-13-13-15-13-13-15-|-12-12-12-12-12-13-10---|-10-10-8-8-7-7-|


|------------------------|----------------------|------------------------|-------------|
|------------------------|----------------------|------------------------|-------------|
|------------------------|----------------------|------------------------|-------------|
|-12-12-12-12-12-13-10---|-13-13-13-15-13-13-15-|-12-12-12-12-12-13-10---|-10----------|
|-12-12-12-12-12-13-10---|-13-13-13-15-13-13-15-|-12-12-12-12-12-13-10---|----13-13-12-|
|-12-12-12-12-12-13-10---|-13-13-13-15-13-13-15-|-12-12-12-12-12-13-10---|-------------|



VERSE 2

|---------|---------|----------|---------|
|---------|---------|----------|---------|
|---------|---------|----------|-----8-8-|
|---7-8---|---------|-10-7-8-7-|---------|
|-5-------|---------|----------|---------|
|---------|---------|----------|---------|  2x

|---------------|---------------|---------------|---------------|
|---------------|---------------|---------------|---------------|
|-8-------------|-8-------------|-8-------------|---------------|
|-6-0-0---0-1-0-|-6-0-0---0-1-0-|-6-0-0---0-1-0-|-3-3-3---1-1-1-|
|-6-0-0---0-1-0-|-6-0-0---0-1-0-|-6-0-0---0-1-0-|-3-3-3---1-1-1-|
|---0-0---0-1-0-|---0-0---0-1-0-|---0-0---0-1-0-|-3-3-3---1-1-1-|   2x

|---------|---------|----------|---------|
|---------|---------|----------|---------|
|---------|---------|----------|-----8-8-|
|---7-8---|---------|-10-7-8-7-|---------|
|-5-------|---------|----------|---------|
|---------|---------|----------|---------|  2x

|---------------|---------------|---------------|---------------|
|---------------|---------------|---------------|---------------|
|-8-------------|-8-------------|-8-------------|---------------|
|-6-0-0---0-1-0-|-6-0-0---0-1-0-|-6-0-0---0-1-0-|-3-3-3---1-1-1-|
|-6-0-0---0-1-0-|-6-0-0---0-1-0-|-6-0-0---0-1-0-|-3-3-3---1-1-1-|
|---0-0---0-1-0-|---0-0---0-1-0-|---0-0---0-1-0-|-3-3-3---1-1-1-|   2x


CHORUS 2

|------------------------|----------------------|------------------------|---------------|
|------------------------|----------------------|------------------------|---------------|
|------------------------|----------------------|------------------------|---------------|
|-12-12-12-12-12-13-10---|-13-13-13-15-13-13-15-|-12-12-12-12-12-13-10---|-10-10-8-8-7-7-|
|-12-12-12-12-12-13-10---|-13-13-13-15-13-13-15-|-12-12-12-12-12-13-10---|-10-10-8-8-7-7-|
|-12-12-12-12-12-13-10---|-13-13-13-15-13-13-15-|-12-12-12-12-12-13-10---|-10-10-8-8-7-7-|  3x


|------------------------|----------------------|------------------------|--------------|
|------------------------|----------------------|------------------------|--------------|
|------------------------|----------------------|------------------------|-12-10-9-9----|
|-12-12-12-12-12-13-10---|-13-13-13-15-13-13-15-|-12-12-12-12-12-13-10---|-----------12-|
|-12-12-12-12-12-13-10---|-13-13-13-15-13-13-15-|-12-12-12-12-12-13-10---|--------------|
|-12-12-12-12-12-13-10---|-13-13-13-15-13-13-15-|-12-12-12-12-12-13-10---|--------------|


BRIDGE

|----13-13-13-13-|---15-15-15-15--|
|----------------|----------------|
|----------------|----------------|
|-0--------------|-0--------------|
|-0--------------|-0--------------|
|-0--------------|-0--------------|  4x



CHORUS 3

|------------------------|----------------------|------------------------|---------------|
|------------------------|----------------------|------------------------|---------------|
|------------------------|----------------------|------------------------|---------------|
|-12-12-12-12-12-13-10---|-13-13-13-15-13-13-15-|-12-12-12-12-12-13-10---|-10-10-8-8-7-7-|
|-12-12-12-12-12-13-10---|-13-13-13-15-13-13-15-|-12-12-12-12-12-13-10---|-10-10-8-8-7-7-|
|-12-12-12-12-12-13-10---|-13-13-13-15-13-13-15-|-12-12-12-12-12-13-10---|-10-10-8-8-7-7-|  3x


|------------------------|----------------------|------------------------|--------------|
|------------------------|----------------------|------------------------|--------------|
|------------------------|----------------------|------------------------|-12-10-9-9----|
|-12-12-12-12-12-13-10---|-13-13-13-15-13-13-15-|-12-12-12-12-12-13-10---|-----------12-|
|-12-12-12-12-12-13-10---|-13-13-13-15-13-13-15-|-12-12-12-12-12-13-10---|--------------|
|-12-12-12-12-12-13-10---|-13-13-13-15-13-13-15-|-12-12-12-12-12-13-10---|--------------|
Tap to rate this tab
# A B C D E F G H I J K L M N O P Q R S T U V W X Y Z