Guitaretab - guitar tabs
Song name
# A B C D E F G H I J K L M N O P Q R S T U V W X Y Z

Ill Nino - El Nino tab

Ill Niņo - El Niņo
Source: www.illninoworld.com
Tabbed by: Yoni Drijfhout (oct 25, 2005)
Questions/corrections: webmaster[at]illninoworld[dot]com

TUNED: drop C   (C,G,C,F,A,D)

* = Pinch Harmonic
p = Pull Off
h = Hammer On
. = Palm Mute


INTRO

-------------------------------|
-------------------------------|
-------------------------------|
-0---1-4-1-5---0-1-0---1-1-1-1-|
-0---1-4-1-5---0-1-0---1-1-1-1-|
-0---1-4-1-5---0-1-0---1-1-1-1-|  3x
                       . . . .
---------------------|
---------------------|
---------------------|
-0---1-4-1-5---0-1-0-|
-0---1-4-1-5---0-1-0-|
-0---1-4-1-5---0-1-0-|


vERSE
---------------------------------------------|
-------------------3---------------------7---|
-------------------7^--------------------10^-|
-0---1---0---1-0-------0---1---0---1-0-------|
-0---1---0---1-0-------0---1---0---1-0-------|
-0---1---0---1-0-------0---1---0---1-0-------|
 .   .   .   . .       .   .   .   . .

PRE-CHORUS
-------------------------------|
-------------------------------|
-------------------------------|
-----------------0-1-0---1-0---|
-----------------0-1-0---1-0---|
-000111444115555-0-1-0---1-0---| 3x

-------------------------------|
-------------------------------|
-------------------------------|
-----------------0-1-0---1-1-1-|
-----------------0-1-0---1-1-1-|
-000111444115555-0-1-0---1-1-1-|


CHORUS
            3x |
---------------|-----------------|
---------------|-----------------|
---------------|-----------------|
-0---1-4-1-5---|-0-1-0---1-1-1-1-|
-0---1-4-1-5---|-0-1-0---1-1-1-1-|
-0---1-4-1-5---|-0-1-0---1-1-1-1-|


Verse
Pre-chorus
Chorus

[ Tab from: http://www.guitaretab.com/i/ill-nino/64935.html ]
BRIDGE
---------------------------------------------|
-------------------------------4-4-4-4-4-4---|
-------------------------------8^8^8^8^8^8^--|
-------------------------------------------0-|
-------------------------------------------0-|
-------------------------------------------0-| 3x

---------------------------------------------|
---------------------------------------------|
---------------------------------------------|
---------------------------------3-3-3-1-1-1-|
---------------------------------3-3-3-1-1-1-|
---------------------------------3-3-3-1-1-1-|


Then:
An acoustic guitar plays:
---------------------------------------|
---------------------------------------|
-7778881111118812121212777888777887788-
-7778881111118812121212777888777887788-
-5556669-9-9-6610101010555666555665566-|
---------------------------------------| 4x

After the second time, there's an acoustic guitar solo:
--------------------------------|
--------------------------------|
-777555444554422111222444221121-
-----------------------------32-|
--------------------------------|
--------------------------------|

------------------------------------|
-----7--7--7--7--8------3---3--3--3-|
-7-8--88-88-88-88-875-7^--7^-7^-7^--|
------------------------------------|
------------------------------------|
------------------------------------|

----------------------------------|
----------------------------------|
-555------------------------------|
----8887778877554445557775544-5-4-|
------------------------------6-5-|
----------------------------------|


OUTRO
            3x |
---------------|-------|
---------------|-------|
---------------|-------|
-0---1-4-1-5---|-0-1-0-|
-0---1-4-1-5---|-0-1-0-|
-0---1-4-1-5---|-0-1-0-|


For other Ill Niņo tabs & more visit http://www.illninoworld.com
Related for El Nino tab
Advertisement will be closed in 10 seconds