Guitaretab - guitar tabs
Song name
# A B C D E F G H I J K L M N O P Q R S T U V W X Y Z

Ill Nino - One Nation Underground tab

Band - Ill Nino
Album - One Nation Underground
Tabber - Killswitch_mike (only On UltimateGuitar.com)

Right, The First One Nation Underground Album Tab, pherw, lets get Going. Some Of The
Songs May Not Include The Flamenco Guitaring, Only The Intense Ones Though, Well...Enjoy

.. = palm mute   / = slide down   \ = slide up   * Pinch Harmonic
p = pull-off    h = hammer-on    ~ - Wide Vibrato   r - ring

Guitar I  - Ahrue (CGCFAD)      Guitar II - Jardel (CGCFAD)

-------------Note - Barely Breathing Is In EADGBE-----------------------

                   ~ This Is War ~

    Intro: (Heavily Distorted)

D|-------------------------------|
A|-------------------------------|
F|-------------------------------|
C|-00-0000-00-000-00-0000-00-000-|
G|-00-0000-00-000-00-0000-00-000-|
C|-00-0000-00-000-00-0000-00-000-|
   .. .... .. ... .. .... .. ...

D|-------------------------------------------------|
A|-------------------------------------------------|
F|----------------------------------------------5*-|
C|-------------------------------------------------| x 4
G|-------------------------------------------------|
C|--0000-12-00-13-00-12-0-6-0000-12-00-13-00-12----|
    ....    ..    ..    .   ....    ..    ..

Fill: ( Bass put to lowest on control knob )


D|--------------|
A|--------------|
F|--------------|
C|-0-1-0-0-1-0--| x 4
G|-0-1-0-0-1-0--|
C|-0-1-0-0-1-0--|

Verse: ( Turn Bass Up To Full )

D|-------------|
A|-------------| Guitar I Plays This 16 Times
F|-------------| Guitar II Plays This 3 times Then Plays this...
C|-0-1-0-0-1-0-|
G|-0-1-0-0-1-0-|
C|-0-1-0-0-1-0-|

D|----------------|
A|----------------|
F|---------7------|
C|---------7------| Play This Four Times ( Guitar II )
G|---------5------|
C|-0-1-0-0---0-6~-|

Chorus :

(Both Guitars)

D|----------------------------------|
A|----------------------------------|
F|----------------------------------|
C|-77777-777-77-77-733333-333-33-33-| x 2  Then Guitar I and II
G|-77777-----77----733333-----33----|      Play Different Parts..
C|-77777-----77----733333-----33---3|
   ..... ... .. .. ...... ... .. ...

Guitar I                       Guitar II

D|------------------|          D|----------------|
A|------------------|          A|----------------|
F|------------------|          F|--7--5--8--7--5-|
C|-0000-00-00-00000-| x2       C|--x--x--x--x--x-| x 2
G|-0000-00-00-00000-|          G|--5--3--6--5--3-|
C|-0000-00-00-00000-|          C|----------------|
   .... .. .. .....

Fill:

D|-------------------------------------------------|
A|-------------------------------------------------|
F|----------------------------------------------5*-|
C|-------------------------------------------------| x 4
G|-------------------------------------------------|
C|--0000-12-00-13-00-12-0-6-0000-12-00-13-00-12----|
    ....    ..    ..    .   ....    ..    ..

Fill: ( Bass put to lowest on control knob )


D|--------------|
A|--------------|
F|--------------|
C|-0-1-0-0-1-0--| x 2 
G|-0-1-0-0-1-0--|
C|-0-1-0-0-1-0--|

Verse: ( Turn Bass Up To Full )

D|-------------|
A|-------------| Guitar I Plays This 16 Times
F|-------------| Guitar II Plays This 3 times Then Plays this...
C|-0-1-0-0-1-0-|
G|-0-1-0-0-1-0-|
C|-0-1-0-0-1-0-|

D|----------------|
A|----------------|
F|---------7------|
C|---------7------| Play This Four Times ( Guitar II )
G|---------5------|
C|-0-1-0-0---0-6~-|

Chorus :

(Both Guitars)

D|----------------------------------|
A|----------------------------------|
F|----------------------------------|
C|-77777-777-77-77-733333-333-33-33-| x 2  Then Guitar I and II
G|-77777-----77----733333-----33----|      Play Different Parts..
C|-77777-----77----733333-----33---3|
   ..... ... .. .. ...... ... .. ...

Guitar I                       Guitar II

D|------------------|          D|----------------|
A|------------------|          A|----------------|
F|------------------|          F|--7--5--8--7--5-|
C|-0000-00-00-00000-| x2       C|--x--x--x--x--x-| x 2
G|-0000-00-00-00000-|          G|--5--3--6--5--3-|
C|-0000-00-00-00000-|          C|----------------|
   .... .. .. .....

Fill:

D|-------------------------------------------------|
A|-------------------------------------------------|
F|----------------------------------------------5*-|
C|-------------------------------------------------| x 4
G|-------------------------------------------------|
C|--0000-12-00-13-00-12-0-6-0000-12-00-13-00-12----|
    ....    ..    ..    .   ....    ..    ..

D|----|
A|----|
F|----|
C|-0~-|
G|-0~-|
C|-0~-|

Solo: Ive Only Been Able To Figure Out The Chords Thats in Ahrues Part
(clean or acoustic)
D|-5~---5~---1~---1~--0~-|
A|-3~---3~---1~---1~--1~-|
F|-2~---5~---3~---3~--2~-|
C|-0~---5~---3~---3~--2~-|
G|-----------------------|
C|-----------------------|

Fill: Both Guitars Fades in With A phaser effect Playing 
The Main Riff 6 times. 

Fill:

D|-------------------------------------------------|
A|-------------------------------------------------|
F|----------------------------------------------5*-|
C|-------------------------------------------------| x 6
G|-------------------------------------------------|
C|--0000-12-00-13-00-12-0-6-0000-12-00-13-00-12----|
    ....    ..    ..    .   ....    ..    ..

When Both Guitars Play This Guitar II Plays This After Its Played The Main
Riff Twice

Guitar II                       
D|------------------|        
A|------------------|          
F|------------------|          
C|-0000-00-00-00000-| x2   
G|-0000-00-00-00000-|         
C|-0000-00-00-00000-|
   .... .. .. .....

Outro: Both Guitars

D|-----|
A|-----|
F|-----|
C|-0-0-|
G|-0-0-|
C|-0-0-| 
   . .                    


                    ~ My Resurrection ~


intro:

D|-----------------------------------------------------------------|
A|-----------------------------------------------------------------|
F|-7--7--7--8--8--5--5--11--11-8---7--7--7--8--8--5--5--11--11-8---|
C|---0--0--0--0--0--0--0--0------0---0--0--0--0--0--0--0--0--------|
G|-----------------------------------------------------------------|
C|-----------------------------------------------------------------|

D|---------------------------------|         |---------------|
A|---------------------------------|         |---------------|
F|---------------------------------|< x3 then|---------------|
C|---------------------------------|         |--------3-1-3-1|
G|---------------------------------|         |-3-1-3-1-------|
C|-0-1-2-2-2-2-2-2--0-1-2-2-2-2-2-2|         |---------------|
   . . . . . . . .  . . . . . . . .            . . . .. . . .


D|---------------------------------|         |---------------|
A|---------------------------------|         |---------------|
F|---------------------------------|< x3 then|---------------|
C|---------------------------------|         |---------------|
G|---------------------------------|         |-3-2-----------|
C|-0-1-2-2-2-2-2-2--0-1-2-2-2-2-2-2|         |----3-2-1-0----|
   . . . . . . . .  . . . . . . . .  

Verse:

D|---------------------------------------------------------|
A|---------------------------------------------------------|
F|--5---------------5---------------5---------------5-5-5--|
C|--5-0-0-0-0-0-0-0-5-0-0-0-0-0-0-0-5-0-0-0-0-0-0-0-5-5-5--| x 3
G|--3-0-0-0-0-0-0-0-3-0-0-0-0-0-0-0-3-0-0-0-0-0-0-0-3-3-3--|
C|----0-0-0-0-0-0-0---0-0-0-0-0-0-0---0-0-0-0-0-0-0--------|  
      . . . . . . .   . . . . . . .   . . . . . . .  

D|-----------------------------------|
A|-----------------------------------|
F|-------5------5-------5------------|
C|-------5------5-------5------------| x 4
G|-------3------3-------3------------|
C|--3-0-0--3-0-0--3-0-0---0-0-0-0----|
      . .    . .    . .   . . . . 

Chorus:

D|------------------------|
A|------------------------|
F|--------5---------------| x 4
C|--0-3-0-5-0-0-3-0-0-0---|
G|--0-3-0-3-0-0-3-0-0-0---|
C|--0-3-0---0-0-3-0-0-0---|   


Verse:

D|---------------------------------|         |---------------|
A|---------------------------------|         |---------------|
F|---------------------------------|< x3 then|---------------|
C|---------------------------------|         |--------3-1-3-1|
G|---------------------------------|         |-3-1-3-1-------|
C|-0-1-2-2-2-2-2-2--0-1-2-2-2-2-2-2|         |---------------|
   . . . . . . . .  . . . . . . . .            . . . .. . . .


D|---------------------------------|         |---------------|
A|---------------------------------|         |---------------|
F|---------------------------------|< x3 then|---------------|
C|---------------------------------|         |---------------|
G|---------------------------------|         |-3-2-----------|
C|-0-1-2-2-2-2-2-2--0-1-2-2-2-2-2-2|         |----3-2-1-0----|
   . . . . . . . .  . . . . . . . .  

D|---------------------------------------------------------|
A|---------------------------------------------------------|
F|--5---------------5---------------5---------------5-5-5--|
C|--5-0-0-0-0-0-0-0-5-0-0-0-0-0-0-0-5-0-0-0-0-0-0-0-5-5-5--| x 3
G|--3-0-0-0-0-0-0-0-3-0-0-0-0-0-0-0-3-0-0-0-0-0-0-0-3-3-3--|
C|----0-0-0-0-0-0-0---0-0-0-0-0-0-0---0-0-0-0-0-0-0--------|  
      . . . . . . .   . . . . . . .   . . . . . . .  

D|-----------------------------------|
A|-----------------------------------|
F|-------5------5-------5------------|
C|-------5------5-------5------------| x 4
G|-------3------3-------3------------|
C|--3-0-0--3-0-0--3-0-0---0-0-0-0----|
      . .    . .    . .   . . . . 

Chorus:

D|------------------------|
A|------------------------|
F|--------5---------------| x 4
C|--0-3-0-5-0-0-3-0-0-0---|
G|--0-3-0-3-0-0-3-0-0-0---|
C|--0-3-0---0-0-3-0-0-0---|   

fill:

D|-------------------------------------|
A|-------------------------------------|
F|--------5-5-5-5-5--------5-5-5-5-5---|
C|--------5-5-5-5-5--------5-5-5-5-5---| x 8
G|--------3-3-3-3-3--------3-3-3-3-3---|
C|--0-0-0------------0-0-0-------------|
    . . .            . . .

D|-----------------------------------|
A|-----------------------------------|
F|-------5------5-------5------------|
C|-------5------5-------5------------| x 4
G|-------3------3-------3------------|
C|--3-0-0--3-0-0--3-0-0---0-0-0-0----|
      . .    . .    . .   . . . . 

Chorus:

D|------------------------|
A|------------------------|
F|--------5---------------| x 4
C|--0-3-0-5-0-0-3-0-0-0---|
G|--0-3-0-3-0-0-3-0-0-0---|
C|--0-3-0---0-0-3-0-0-0---|   


                   ~ What You Deserve ~


Intro:

D|-------------------|
A|-------------------|
F|-7-77-777-7-77-777-|	
C|-x-xx-xxx-x-xx-xxx-|
G|-5-55-555-5-55-555-|
C|-------------------|

D|----------------------------------|
A|----------------------------------|
F|-----8-7------8-7-----8-5-----8-7-|	
C|-----8-7------8-7-----8-5-----8-7-| x 2
G|-----6-5------6-5-----6-3-----6-5-|
C|-000--0---000--0--888--8--555--5--|
   ...  .   ...  .  ...  .  ...  . 

Verse:

D|----------------------------------|
A|----------------------------------|
F|-----77777777-----101010-----555--|	
C|-000----------888--------555------| x 4
G|-000----------888--------555------|
C|-000----------888--------555------|
   ...          ...        ...   

Fill:

D|---------|
A|---------|
F|--7 r----|
C|--7 r----|
G|--5 r----|
C|---------|    


Chorus: Guitar I

|------------------------------------------------|
|-33333333111111118888--333333331111111113131213-|
|-22222222101010107777--222222221010101012121212-|	x 2
|-00000000-8-8-8-85555--00000000-8-8-8-810101010-|
|-00000000-8-8-8-85555--00000000-8-8-8-810101010-|
|-00000000 8-8-8-85555--00000000-8-8-8-810101010-|

Guitar II


|---------------------------------|
|-----1-------1-------1-------1---|    
|---2---2---2---2---2---2---2---2-|   x 4 
|-0r------0r------8r------5r------|    
|---------------------------------|
|---------------------------------|


Verse:

D|----------------------------------|
A|----------------------------------|
F|-----77777777-----101010-----555--|	
C|-000----------888--------555------| x 4
G|-000----------888--------555------|
C|-000----------888--------555------|
   ...          ...        ...   

Fill:

D|---------|
A|---------|
F|--7 r----|
C|--7 r----|
G|--5 r----|
C|---------|  


 Chorus: Guitar I

|------------------------------------------------|
|-33333333111111118888--333333331111111113131213-|
|-22222222101010107777--222222221010101012121212-|	x 2
|-00000000-8-8-8-85555--00000000-8-8-8-810101010-|
|-00000000-8-8-8-85555--00000000-8-8-8-810101010-|
|-00000000 8-8-8-85555--00000000-8-8-8-810101010-|

Guitar II


|---------------------------------|
|-----1-------1-------1-------1---|    
|---2---2---2---2---2---2---2---2-|    
|-0r------0r------8r------5r------|  x 4  
|---------------------------------|
|---------------------------------|

Bridge:

|----------------------------------------------|
|----------------------------------------------|
|----------------------------------------------|	
|-0--2--3--5----8888888----00000----333333-----| repeat after chorus
|-0--2--3--5----8888888----00000----333333-----|
|-0--2--3--5----8888888----00000----333333-----|


Chorus: Guitar I

|------------------------------------------------|
|-33333333111111118888--333333331111111113131213-|
|-22222222101010107777--222222221010101012121212-|	x 2
|-00000000-8-8-8-85555--00000000-8-8-8-810101010-|
|-00000000-8-8-8-85555--00000000-8-8-8-810101010-|
|-00000000 8-8-8-85555--00000000-8-8-8-810101010-|

Guitar II


|---------------------------------|
|-----1-------1-------1-------1---|    
|---2---2---2---2---2---2---2---2-|    
|-0r------0r------8r------5r------|  x 4  
|---------------------------------|
|---------------------------------|


D|----------------------------------|
A|----------------------------------|
F|-----8-7------8-7-----8-5-----8-7-|	
C|-----8-7------8-7-----8-5-----8-7-| x 4
G|-----6-5------6-5-----6-3-----6-5-|
C|-000--0---000--0--888--8--555--5--|
   ...  .   ...  .  ...  .  ...  . 

Outro:

Guitar I

D|-----|
A|-----|
F|-----|
C|-0r--|
G|-0r--|
C|-0r--|

Guitar II

|---------------------------------|
|-----1-------1-------1-------1---|    
|---2---2---2---2---2---2---2---2-|    
|-0r------0r------8r------5r------|  x 4  
|---------------------------------|
|---------------------------------|


                  ~ Turns To Gray ~

Intro

D----------------------------------------------------------|
A----------------------------------------------------------|
F-------8-7-----8-7---7/8-----8-7-----8-10---8/7-----------|
C-------8-7-----8-7---7/8-----8-7-----8-10---8/7-----------| x 4
G-------6-5-----6-5---5/6-----6-5-----6-8----6/5-----------|
C---0-0----0-0-0-----0-----0-0----0-0-0----0---------------|
    . .    . . .     .     . .    . . .    .

Verse

D----------------------------------------------|
A----------------------------------------------|
F----------------------------------------------|     X 2
C---0-0-0-0-0----------------------------------|
G---0-0-0-0-0----------------------------------|
C---0-0-0-0-0----------------------------------|
    . . . . .

D----------------------------------------------|
A----------------------------------------------|
F----------------------------------------------|
C----------------------------------------------|
G---7-7-7-7-7-7-7-7--10-10-10-10-10--1-1-1-1-1
C---7-7-7-7-7-7-7-7--10-10-10-10-10--1-1-1-1-1-|

D----------------------------------------------|
A----------------------------------------------|
F---8-8----7-7---8-8---------------------------|
C---8-8----7-7---8-8---------------------------|
G---6-6----5-5---6-6---------------------------|
C----------------------------------------------|

Chorus- 

D----------------------------------------------|
A----------------------------------------------|
F----------------------------------------------|
C--5-5-5-5-5-5-5-5-5--1-1-1-1-1-1-1-1-1--------|
G--5-5-5-5-5-5-5-5-5--1-1-1-1-1-1-1-1-1--------|
C--5-5-5-5-5-5-5-5-5--1-1-1-1-1-1-1-1-1--------|

D|------------------------------------|
A|------------------------------------|
F|-121212101010------151515141414-----|	
C|-------------121212------------1515-|
G|------------------------------------|
C|------------------------------------|

D|--------------|
A|--------------|
F|-20-19r-------|	
C|--------------|
G|--------------|
C|--------------|


D------------------------------------------------|
A------------------------------------------------|
F-------8-7-----8-7---7/8-----8-7-----8-10---8/7-|
C-------8-7-----8-7---7/8-----8-7-----8-10---8/7-|
G-------6-5-----6-5---5/6-----6-5-----6-8----6/5-|
C---0-0----0-0-0-----0-----0-0----0-0-0----0-----|
    . .    . . .     .     . .    . . .    .

D----------------------------------------------|
A----------------------------------------------|
F----------------------------------------------|
C--5-5-5-5-5-5-5-5-5--1-1-1-1-1-1-1-1-1--------|
G--5-5-5-5-5-5-5-5-5--1-1-1-1-1-1-1-1-1--------|
C--5-5-5-5-5-5-5-5-5--1-1-1-1-1-1-1-1-1--------|


D---------------------------------------------------------|
A---------------------------------------------------------|
F-------8-7-----8-7---7/8-----8-7-----8-10---8/7----------|
C-------8-7-----8-7---7/8-----8-7-----8-10---8/7----------|    X 2
G-------6-5-----6-5---5/6-----6-5-----6-8----6/5----------|
C---0-0----0-0-0-----0-----0-0----0-0-0----0--------------|
    . .    . . .     .     . .    . . .    .

Outro

D----------------------------------------------|
A----------------------------------------------|
F----------------------------------------------|
C--0r--0-0-0-1-0-3-1-0-0-0-1-0-0-1-0-0---------|     X 10
G--0r--0-0-0-1-0-3-1-0-0-0-1-0-0-1-0-0---------|
C--0r--0-0-0-1-0-3-1-0-0-0-1-0-0-1-0-0---------|
       . . .         . . .   . .   . .


( End On this )

D--------------------------------------------------|
A--------------------------------------------------|
F--------------------------------------------------|
C---0-r--------------------------------------------|
G---0-r--------------------------------------------|
C---0-r--------------------------------------------|


                       ~ De Le Vida ~

Intro:

D|------------------|
A|------------------|
F|-----7-7-10-8-----|
C|-0-3-7-7-10-8-6~--| x 4  Then Carry On The Intro Playing This..
G|-0-3-5-5--8-6-6~--|
C|-0-3----------6~--|

D|----|---------------------|
A|----|---------------------|
F|----|-7-7-10-8------------|
C|-0-3|-7-7-10-8------------| x 4  first time play both bars on
G|-0-3|-5-5--8-6-6-6-0------|       this riff, The 3 other times just play
C|-0-3|----------6-6-0-3p0--|      the second bar.


Verse:  (clean)

D|--------------------|        D|--------------------------|
A|--------------------|        A|--------------------------|
F|--7-8-8-8--5-5-7----|        F|-----778888888555577------|
C|----------------8-8-| x 4    C|---------------------8888-| x 2
G|-5------------------| then   G|-5-5----------------------|
C|--------------------| play.. C|--------------------------|
                                  . . ............... ....

Pre-Chorus:

D|----------------------|     D|-------------------|
A|----------------------|     A|-------------------|
F|-7-7-10--8------------|     F|-------------------|
C|-7-7-10--8-6-6-0------|then C|-3-5-6-6-6-6-6-6-6-|
G|-5-5--8--6-6-6-0------|play G|-3-5-6-6-6-6-6-6-6-|
C|-----------6-6-0--3p0-|     C|-3-5-6-6-6-6-6-6-6-|

Chorus:
Guitar I                    Guitar II

D|-----------------|       D|--------------------------|
A|-----------------|       A|--------------------------|
F|-----------------|       F|---7-7-7-8p7-7-7-10p7-7-7-|
C|-0---3----6----6-| x 2   C|-7------------------------| x 8
G|-0---3----6----6-|       G|--------------------------|
C|-0---3----6----6-|       C|--------------------------|


Verse:  (clean)

D|--------------------|        D|--------------------------|
A|--------------------|        A|--------------------------|
F|--7-8-8-8--5-5-7----|        F|-----778888888555577------|
C|----------------8-8-| x 4    C|---------------------8888-| x 2
G|-5------------------| then   G|-5-5----------------------|
C|--------------------| play.. C|--------------------------|
                                  . . ............... ....

Pre-Chorus:

D|----------------------|     D|-------------------|
A|----------------------|     A|-------------------|
F|-7-7-10--8------------|     F|-------------------|
C|-7-7-10--8-6-6-0------|then C|-3-5-6-6-6-6-6-6-6-|
G|-5-5--8--6-6-6-0------|play G|-3-5-6-6-6-6-6-6-6-|
C|-----------6-6-0--3p0-|     C|-3-5-6-6-6-6-6-6-6-|


Chorus:
Guitar I                    Guitar II

D|-----------------|       D|--------------------------|
A|-----------------|       A|--------------------------|
F|-----------------|       F|---7-7-7-8p7-7-7-10p7-7-7-|
C|-0---3----6----6-| x 2   C|-7------------------------| x 8
G|-0---3----6----6-|       G|--------------------------|
C|-0---3----6----6-|       C|--------------------------|

Bridge:

D|------------------------------------------|
A|------------------------------------------|
F|-------------------------------------13/8-|
C|-------------------------------------13/8-| x 6
G|-------------------------------------11/6-|
C|-1p0-0-0-0---0-1p0-0-0---0-1p0-0-0-0------|

D|------------------------------|
A|------------------------------|
F|------------------------------|
C|-6-6-6-6-6-6-6-6-6-6-6-6-6-6--|
G|-6-6-6-6-6-6-6-6-6-6-6-6-6-6--|
C|-6-6-6-6-6-6-6-6-6-6-6-6-6-6--|
   . . . . . . 

Chorus:
Guitar I                    Guitar II

D|-----------------|       D|--------------------------|
A|-----------------|       A|--------------------------|
F|-----------------|       F|---7-7-7-8p7-7-7-10p7-7-7-|
C|-0---3----6----6-| x 2   C|-7------------------------| x 8
G|-0---3----6----6-|       G|--------------------------|
C|-0---3----6----6-|       C|--------------------------|

Outro :

D|--------------|
A|--------------|
F|--------------|
C|-0~---3~--5~--|
G|-0~---3~--5~--|
C|-0~---3~--5~--|

D|-----|
A|-----|
F|-----|
C|--0~-|
G|--0~-|
C|--0~-|



                     ~ La Liberacion Of Our Awakening ~


Intro:


Guitar I

D|-10-----------------------------------|
A|-10------10-------10----10-------10---|
F|--7-------7--------7-----7--------7---|
C|--7-----------------------------------| x 4
G|--------------------------------------|
C|--------------------------------------|  

Guitar II
D|-----------------------------|
A|----------------10----10-----|
F|---7-87---7-87-----87----878-|
C|-----------------------------| x 4
G|-----------------------------|
C|-----------------------------|  


Verse:

Guitar II

D-10-----------------------------------|
A-10------10-------10----10-------10---|
F--7-------7--------7-----7--------7---|
C--7-----------------------------------|
G--------------------------------------|
C--------------------------------------|  x 4

Guitar II
D-----------------------------|
A----------------10----10-----|
F---7-87---7-87-----87----878-|
C-----------------------------|
G-----------------------------|
C-----------------------------|  4x




Chorus:
        
Guitar I
                 
D-------------------------------------|-----|-----|
A-------------------------------------|-----|-----| riff 1 x 2
F-------14-14-14-14-------12-12-12-12-|-----|-----| riff 2 x 8
C-0-0----x--x--x--x-0-0----x--x--x--x-|-8-8-|-7-7-| riff 3 x 8
G-0-0---12-12-12-12-0-0---10-10-10-10-|-8-8-|-7-7-|
C-0-0---------------0-0---------------|-8-8-|-7-7-| 
  .                 .

Guitar II
                             
D---------------------------------|----|----|---|----|
A---------------------------------|----|----|---|----| Riff 1 x 2
F-------10-10-10-10-------9-9-9-9-|-10-|-12-|-9-|-10-| Riff 2 x 13
C-0-0----x--x--x--x-0-0---x-x-x-x-|--x-|--x-|-x-|--x-| Riff 3 x 3
G-0-0----8--8--8--8-0-0---7-7-7-7-|--8-|-10-|-7-|--8-| Riff 4 x 13
C-0-0---------------0-0-----------|----|----|---|----| Riff 5 x 3 
  .                 .


Verse

Guitar II

D-10-----------------------------------|
A-10------10-------10----10-------10---|
F--7-------7--------7-----7--------7---|
C--7-----------------------------------|
G--------------------------------------|
C--------------------------------------|  x 4

Guitar II
D-----------------------------|
A----------------10----10-----|
F---7-87---7-87-----87----878-|
C-----------------------------| x 4
G-----------------------------|
C-----------------------------|  




Fill:

D---------------------------------------------------------|
A---------------------------------------------------------|
F---------------------------------------------------------|
C-5-------------8-8-8-8-8-8-8-8-7-8-7-5-7-5-3-7-0---------|
G-5-------------8-8-8-8-8-8-8-8-7-8-7-5-7-5-3-7-0---------|
C-5-------------8-8-8-8-8-8-8-8-7-8-7-5-7-5-3-7-0---------|

Bridge

Guitar II

D---------------------------------|
A---------------------------------|
F---------------------------------|
C-0-------8-------5-------0-------| x 8
G-0-------8-------5-------0-------|
C-0-------8-------5-------0-------| 

--------------------------|
--------------------------|
--------------------------|
-0-0-0--0---0-0--0--0-0-0-|
-0-0-0--0---0-0--0--0-0-0-|
-0-0-0--0---0-0--0--0-0-0-|
 . . .  .   . .  .  . . .

--------------------------------|
--------------------------------|
--------------------------------|
-0-0-0--0---0-8-7-5-7-5-3-5-3-2-|
-0-0-0--0---0-8-7-5-7-5-3-5-3-2-|
-0-0-0--0---0-8-7-5-7-5-3-5-3-2-|
 . . .  .   . . . . . . . . . .

Guitar II

D--------------------------------------|
A--------------------------------------|
F--------9h10p9-------12--10-9-10-9----|
C-12--------------------------------10-|
G--------------------------------------|
C--------------------------------------| 2x

D----------------------------------------|
A----------------------------------------|
F--------10h12p10-------12--10-9-10-9----|
C-------------------------------------10-|
G-13-------------------------------------|
C----------------------------------------|
[ Tab from: http://www.guitaretab.com/i/ill-nino/67502.html ]
--------------------------------------|
--------------------------------------|
--------9h10p9-------12--10-9-10-9----|
-12--------------------------------10-|
--------------------------------------|
--------------------------------------| 3x

----------------------------------------|
----------------------------------------|
--------10h12p10-------12--10-9-10-9----|
-------------------------------------10-|
-13-------------------------------------|
----------------------------------------|

--------------------------------------|
--------------------------------------|
--------9h10p9-------12--10-9-10-9----|
-12--------------------------------10-|
--------------------------------------|
--------------------------------------|

--------------------------|
--------------------------|
--------------------------|
-0-0-0--0---0-0--0--0-0-0-|
-0-0-0--0---0-0--0--0-0-0-|
-0-0-0--0---0-0--0--0-0-0-|
 . . .  .   . .  .  . . .

--------------------------------|
--------------------------------|
--------------------------------|
-0-0-0--0---0-8-7-5-7-5-3-5-3-2-|
-0-0-0--0---0-8-7-5-7-5-3-5-3-2-|
-0-0-0--0---0-8-7-5-7-5-3-5-3-2-|
 . . .  .   . . . . . . . . . .

 Backing Guitar  after 4 times:
------------------------------------------|
------------------------------------------|
--------12h14p12-------15--14-12-14-12----|
-15------------------------------------14-| x 4
------------------------------------------|
------------------------------------------| 

-------------------------------------------|
--------11h13p11---------------------------|
-----------------------15--14--12-14-12----|
-12-------------------------------------14-|
-------------------------------------------|
-------------------------------------------|

------------------------------------------|
------------------------------------------|
--------12h14p12-------15--14-12-14-12----|
-15------------------------------------14-| x 3
------------------------------------------|
------------------------------------------| 

-------------------------------------------|
--------11h13p11---------------------------|
-----------------------15--14--12-14-12----|
-12-------------------------------------14-|
-------------------------------------------|
-------------------------------------------|

------------------------------------------|
------------------------------------------|
--------12h14p12-------15--14-12-14-12----|
-15------------------------------------14-|
------------------------------------------|
------------------------------------------|


Chorus:

Guitar I
                 
D-------------------------------------|-----|-----|
A-------------------------------------|-----|-----| riff 1 x 2
F-------14-14-14-14-------12-12-12-12-|-----|-----| riff 2 x 8
C-0-0----x--x--x--x-0-0----x--x--x--x-|-8-8-|-7-7-| riff 3 x 8
G-0-0---12-12-12-12-0-0---10-10-10-10-|-8-8-|-7-7-|
C-0-0---------------0-0---------------|-8-8-|-7-7-| 
  .                 .

Guitar II
                             
D---------------------------------|----|----|---|----|
A---------------------------------|----|----|---|----| Riff 1 x 2
F-------10-10-10-10-------9-9-9-9-|-10-|-12-|-9-|-10-| Riff 2 x 13
C-0-0----x--x--x--x-0-0---x-x-x-x-|--x-|--x-|-x-|--x-| Riff 3 x 3
G-0-0----8--8--8--8-0-0---7-7-7-7-|--8-|-10-|-7-|--8-| Riff 4 x 13
C-0-0---------------0-0-----------|----|----|---|----| Riff 5 x 3 
  .                 .



Outro:
D---------------------------------------------------------|
A---------------------------------------------------------|
F---------------------------------------------------------|
C-5-------------8-8-8-8-8-8-8-8-7-8-7-5-7-5-3-7-0---------|
G-5-------------8-8-8-8-8-8-8-8-7-8-7-5-7-5-3-7-0---------|
C-5-------------8-8-8-8-8-8-8-8-7-8-7-5-7-5-3-7-0---------|



                     ~ All That I Ask For ~

Intro; (Bass Turned Down And Use Flanger Or Phaser)- Strum These Chords

Guitar I & II

D|-------------------------------------|
A|-------------------------------------|
F|-77777777-55555555-33333333-55555555-|
C|-xxxxxxxx-xxxxxxxx-xxxxxxxx-xxxxxxxx-| x 3 Singing Comes In 2nd Time And
G|-55555555-33333333-11111111-33333333-|     On 3rd Time Hold The Last Chord
C|-------------------------------------|

Guitar I

D|-----------------------------|
A|-----------------------------|
F|-----------------------------|
C|--555-777-333333-000---------| x 4
G|--555-777-333333-000---------|
C|--555-777-333333-000-3p5-----|

Guitar II

D|-10-10-10-12-12-12-8-8-8-8-8-8-8-8-5p7-|
A|---------------------------------------|
F|---------------------------------------|
C|---------------------------------------| 
G|---------------------------------------|
C|---------------------------------------|
                           
D|--13-13-13-12-12-12-10~-|     ^^^
A|------------------------|  
F|------------------------|  << Repeat All Of This 4 Times
C|------------------------|
G|------------------------|
C|------------------------|

Guitar I               Guitar II

D|---------------|     D|-10~--|
A|---------------|     A|------|
F|---------------|     F|------|
C|-0-------------|     C|------|
G|-0 ------------|     G|------|
C|-0 < Let Ring--|     C|------|

Verse:

Guitar I

D|-----------------------------|
A|-----------------------------|
F|-----------------------------|
C|--555-777-333333-000---------| x 4
G|--555-777-333333-000---------|
C|--555-777-333333-000-3p5-----|
    ... ... ...... ... ...

Guitar II

D|-17 < let ring--|
A|----------------|
F|----------------|
C|----------------| x 2
G|----------------|
C|----------------|

Fill:

Guitar I & II

D|------------------|
A|------------------|
F|--3---------------|
C|--3---------------|
G|--1 < Let Ring----|
C|------------------|

 Pre-Chorus:

Guitar I

D|-----------------------------|
A|-----------------------------|
F|-----------------------------|
C|--555-777-333333-000---------| x 4
G|--555-777-333333-000---------|
C|--555-777-333333-000-3p5-----|

Guitar II

D|-10-10-10-12-12-12-8-8-8-8-8-8-8-8-5p7-|
A|---------------------------------------|
F|---------------------------------------|
C|---------------------------------------| 
G|---------------------------------------|
C|---------------------------------------|
                           
D|--13-13-13-12-12-12-10~-|     ^^^
A|------------------------|  
F|------------------------|  << Repeat All Of This 4 Times
C|------------------------|
G|------------------------|
C|------------------------|

Chorus: 

Guitar I 

D|-------------------------------------|
A|-------------------------------------|
F|-77777777-55555555-33333333-55555555-|
C|-xxxxxxxx-xxxxxxxx-xxxxxxxx-xxxxxxxx-| x 4
G|-55555555-33333333-11111111-33333333-|     
C|-------------------------------------|

Guitar II

D|-10-10-10-12-12-12-8-8-8-8-8-8-8-8-5p7-|
A|---------------------------------------|
F|---------------------------------------|
C|---------------------------------------| 
G|---------------------------------------|
C|---------------------------------------|
                           
D|--13-13-13-12-12-12-10~-|     ^^^
A|------------------------|  
F|------------------------|  << Repeat All Of This 4 Times
C|------------------------|
G|------------------------|
C|------------------------|


Fill:

Guitar I & II

D|--------------|
A|--------------|
F|--------------|
C|-3------------|
G|-3------------|
C|-3 < Let Ring-|

Verse:

Guitar I

D|-----------------------------|
A|-----------------------------|
F|-----------------------------|
C|--555-777-333333-000---------| x 4
G|--555-777-333333-000---------|
C|--555-777-333333-000-3p5-----|
    ... ... ...... ... ...

Guitar II

D|-17 < let ring--|
A|----------------|
F|----------------|
C|----------------| x 2
G|----------------|
C|----------------|


Chorus: 

Guitar I 

D|-------------------------------------|
A|-------------------------------------|
F|-77777777-55555555-33333333-55555555-|
C|-xxxxxxxx-xxxxxxxx-xxxxxxxx-xxxxxxxx-| x 4
G|-55555555-33333333-11111111-33333333-|     
C|-------------------------------------|

Guitar II

D|-10-10-10-12-12-12-8-8-8-8-8-8-8-8-5p7-|
A|---------------------------------------|
F|---------------------------------------|
C|---------------------------------------| 
G|---------------------------------------|
C|---------------------------------------|
                           
D|--13-13-13-12-12-12-10~-|     ^^^
A|------------------------|  
F|------------------------|  << Repeat All Of This 4 Times
C|------------------------|
G|------------------------|
C|------------------------|


Fill:

Guitar I

D|-------------|
A|-------------|
F|-------------|
C|-2-00-3-00-2-|
G|-2-00-3-00-2-|
C|-2-00-3-00-2-|


Chorus: 

Guitar I 

D|-------------------------------------|
A|-------------------------------------|
F|-77777777-55555555-33333333-55555555-|
C|-xxxxxxxx-xxxxxxxx-xxxxxxxx-xxxxxxxx-| x 4
G|-55555555-33333333-11111111-33333333-|     
C|-------------------------------------|

Guitar II

D|-10-10-10-12-12-12-8-8-8-8-8-8-8-8-5p7-|
A|---------------------------------------|
F|---------------------------------------|
C|---------------------------------------| 
G|---------------------------------------|
C|---------------------------------------|
                           
D|--13-13-13-12-12-12-10~-|     ^^^
A|------------------------|  
F|------------------------|  << Repeat All Of This 4 Times
C|------------------------|
G|------------------------|
C|------------------------|


Fill:

Guitar I

D|-------------|
A|-------------|
F|-------------|
C|-2-00-3-00-2-|
G|-2-00-3-00-2-|
C|-2-00-3-00-2-|

Chorus: 

Guitar I 

D|-------------------------------------|
A|-------------------------------------|
F|-77777777-55555555-33333333-55555555-|
C|-xxxxxxxx-xxxxxxxx-xxxxxxxx-xxxxxxxx-| x 4
G|-55555555-33333333-11111111-33333333-|     
C|-------------------------------------|

Guitar II

D|-10-10-10-12-12-12-8-8-8-8-8-8-8-8-5p7-|
A|---------------------------------------|
F|---------------------------------------|
C|---------------------------------------| 
G|---------------------------------------|
C|---------------------------------------|
                           
D|--13-13-13-12-12-12-10~-|     ^^^
A|------------------------|  
F|------------------------|  << Repeat All Of This 4 Times
C|------------------------|
G|------------------------|
C|------------------------|


                   ~ Corazon Of Mine ~

Intro: ( Slowly Turn Volume Up While Playing) (clean)

D|--3-5p3-3-5p3--8-10p8--8-10p8-|
A|------------------------------|
F|------------------------------|
C|------------------------------| x 3
G|------------------------------|
C|------------------------------|

D|-----------------------|
A|-----------------------|
F|-----------------------|
C|-00-0000000-00-0000000-| x 4
G|-00-0000000-00-0000000-|
C|-00-0000000-00-0000000-|
   .. ....... .. .......

D|-----------------------------------|
A|-----------------------------------|
F|-----------------------------------|  then play ............
C|-0-0--0-0-1-0-00-------------------|
G|-0-0--0-0-1-0-00--5555----6666-----|
C|-0-0--0-0-1-0-00------6666----5555-|
                    ................   

D|-----------------------------------------|
A|-----------------------------------------|
F|-----------------------------------------|
C|-0-0-0---0-0-0-0-0-1-0-------------------|
G|-0-0-0---0-0-0-0-0-1-0--5555----6666-----|
C|-0-0-0---0-0-0-0-0-1-0------6666----5555-| 
                          ................  

  
D|-----------------------------------|
A|-----------------------------------|
F|-----------------------------------|  then play the second riff again
C|-0-0--0-0-1-0-00-------------------|
G|-0-0--0-0-1-0-00--5555----6666-----|
C|-0-0--0-0-1-0-00------6666----5555-|
                    ................

D|-----------------------------------------|
A|-----------------------------------------|
F|-----------------------------------------|
C|-0-0-0---0-0-0-0-0-1-0-------------------|
G|-0-0-0---0-0-0-0-0-1-0--5555----6666-----|
C|-0-0-0---0-0-0-0-0-1-0------6666----5555-| 
                          ................ 

verse: (Turn Distortion Down) -guitar I-

D|-------------------------------------|
A|-------------------------------------|
F|-------------------------------------|
C|-------------------------------------| x 2
G|--5555----6666-----5555----6666------|
C|------6666----5555-----6666-----5555-|
    .................................. 

guitar II

D|----------------|
A|-2-3p2---2-3p2--|
F|----------------|
C|----------------| x 2
G|----------------|
C|----------------|

Chorus:

D|-----------------------------------|
A|-----------------------------------|
F|-777777----------------------------|
C|-777777-777777-555555-00000000-----| x 2
G|-555555-777777-555555-00000000-----|
C|--------555555-333333-00000000-----|

Fill:


D|-----------------------------------|
A|-----------------------------------|
F|-----------------------------------|  then play ............
C|-0-0--0-0-1-0-00-------------------|
G|-0-0--0-0-1-0-00--5555----6666-----|
C|-0-0--0-0-1-0-00------6666----5555-|
                    ................   

D|-----------------------------------------|
A|-----------------------------------------|
F|-----------------------------------------|
C|-0-0-0---0-0-0-0-0-1-0-------------------|
G|-0-0-0---0-0-0-0-0-1-0--5555----6666-----|
C|-0-0-0---0-0-0-0-0-1-0------6666----5555-| 
                          ................  

  
D|-----------------------------------|
A|-----------------------------------|
F|-----------------------------------|  then play the second riff again
C|-0-0--0-0-1-0-00-------------------|
G|-0-0--0-0-1-0-00--5555----6666-----|
C|-0-0--0-0-1-0-00------6666----5555-|
                    ................

D|-----------------------------------------|
A|-----------------------------------------|
F|-----------------------------------------|
C|-0-0-0---0-0-0-0-0-1-0-------------------|
G|-0-0-0---0-0-0-0-0-1-0--5555----6666-----|
C|-0-0-0---0-0-0-0-0-1-0------6666----5555-| 
                          ................ 

verse: (Turn Distortion Down) -guitar I-

D|-------------------------------------|
A|-------------------------------------|
F|-------------------------------------|
C|-------------------------------------| x 2
G|--5555----6666-----5555----6666------|
C|------6666----5555-----6666-----5555-|
    .................................. 

guitar II

D|----------------|
A|-2-3p2---2-3p2--|
F|----------------|
C|----------------| x 2
G|----------------|
C|----------------|


Chorus:

D|-----------------------------------|
A|-----------------------------------|
F|-777777----------------------------|
C|-777777-777777-555555-00000000-----| x 2
G|-555555-777777-555555-00000000-----|
C|--------555555-333333-00000000-----|

breakdown

D|---------------------------------|
A|---------------------------------|
F|---------------------------------|
C|---------------------------------|
G|----5------66666---5------66666--|
C|-000-0-0000-----000-0-0000-------|

Chorus:

D|-----------------------------------|
A|-----------------------------------|
F|-777777----------------------------|
C|-777777-777777-555555-00000000-----| x 2
G|-555555-777777-555555-00000000-----|
C|--------555555-333333-00000000-----|

Outro

Guitar I 

D|----|
A|----|
F|----|
C|-0~-|
G|-0~-|
C|-0~-|

Guitar II

 ( Slowly Turn volume Up While Playing) (clean)

D|--3-5p3-3-5p3--8-10p8--8-10p8-|
A|------------------------------|
F|------------------------------|
C|------------------------------| x 3
G|------------------------------|
C|------------------------------|





                          ~ Everything Beautiful ~


Intro: Clean or acoustic

D|-------------------|
A|-------------------|
F|-7-7-5-5-8-8-5-7-7-|
C|-7-7-5-5-8-8-5-7-7-| x 4
G|-5-5-3-3-6-6-3-5-5-|
C|-------------------|

Fill: (Distorted now)

D|---------|
A|---------|
F|-7-5-5-8-|
C|-7-5-5-8-|
G|-5-3-3-6-|
C|---------|

verse

D|--------------------------------------|
A|--------------------------------------|
F|--------------------------------------|
C|--------------------------------------| x 2
G|----3-4-3-3----3-4-3-3-----3-4-3-3----|
C|-000--------000---------000--------000|
   ...        ...         ...        ...
Chorus:

D|-------------------------------|
A|-------------------------------|
F|-------------------------------|
C|-5555~--88888~--5555~--33333~--| x 2
G|-5555~--88888~--5555~--33333~--|
C|-5555~--88888~--5555~--33333~--|

verse

D|--------------------------------------|
A|--------------------------------------|
F|--------------------------------------|
C|--------------------------------------| x 2
G|----3-4-3-3----3-4-3-3-----3-4-3-3----|
C|-000--------000---------000--------000|
   ...        ...         ...        ...

Chorus:

D|-------------------------------|
A|-------------------------------|
F|-------------------------------|
C|-5555~--88888~--5555~--33333~--| x 2
G|-5555~--88888~--5555~--33333~--|
C|-5555~--88888~--5555~--33333~--|

Fill:

D|-------------------------|
A|-------------------------|
F|-77777-55555-55555-88888-|
C|-77777-55555-55555-88888-| x 4
G|-55555-33333-33333-66666-|
C|-------------------------|

Chorus:

D|-------------------------------|
A|-------------------------------|
F|-------------------------------|
C|-5555~--88888~--5555~--33333~--| x 2
G|-5555~--88888~--5555~--33333~--|
C|-5555~--88888~--5555~--33333~--|



                  ~ In This Moment ~
 Havent Got Yet, Will Soon ( Im Almost There )

                  ~ My Pleasant Torture ~
Havent Got This One Either, Working On It

 


           ~ Barely Breathing ~

~ This Is An Acoustic Track In Standard Tuning ~


E|---------3---------------3--------|
B|-----4---4---4-------4---4---4----|
G|-----5-------5-------3-------5----|
D|---5---5---5---5---5---5---5---5--|      \
A|-3---------------6----------------|       \
E|----------------------------------|        \
                                              Repeat All Of This 4 Times
E|--------------------------------------|  /
B|----------9----------------9----------| /
G|-----8---8---8-------7----7---7-------|/
D|---6--6-6----6--6-6---5-5-5----5-5-5--|
A|-6------------------5-----------------|
E|--------------------------------------|


Finish It Off With This:


E|---------3-----------|
B|-----4---4---4-------|
G|-----5-------5-------|
D|---5---5---5---5-----|
A|-3---------------3---|
E|---------------------|


                       ~ Violent Saint ~

Intro:

---------|
---------|
---------|
-<-<-<-<-|
-<-<-<-<-|
-<-<-<-<-|



Verse :


Guitar I
-----------------------------------------------------------------|
-----------------------------------------------------------------|
-7---8---7---8---7---8-----------7---8---7---8---7---8---7---8---| x 4
-------------------------0-0-0-0---------------------------------|
-------------------------0-0-0-0---------------------------------|
-------------------------0-0-0-0---------------------------------| 
                         . . . .
----------------------|
----------------------|
----------------------|
-0-0-0---0000---0-00--|
-0-0-0---0000---0-00--|
-0-0-0---0000---0-00--|
 . . .   ....   . ..

Guitar II
-----------------------------------------------------------------|
-----------------------------------------------------------------|
-----------------------------------------------------------------|
-0-----------------------0-0-0-0-0---------------<-<-<-<-<-<-<-<-| x 4
-0-----------------------0-0-0-0-0---------------<-<-<-<-<-<-<-<-|
-0-----------------------0-0-0-0-0---------------<-<-<-<-<-<-<-<-| 
                         . . . .                  
----------------------|
----------------------|
----------------------|
-0-0-0---0000---0-00--|
-0-0-0---0000---0-00--|
-0-0-0---0000---0-00--|
 . . .   ....   . ..

Fill:

----------------------|
----------------------|
----------------------|
-0-0-0---0000---0-00--| x 8
-0-0-0---0000---0-00--|
-0-0-0---0000---0-00--| 
 . . .   ....   . ..




Chorus


Guitar I
-----------------------------------------------------------------|
-----------------------------------------------------------------|
-7---8---7---8---7---8-----------7---8---7---8---7---8---7---8---| x 4
-------------------------0-0-0-0---------------------------------|
-------------------------0-0-0-0---------------------------------|
-------------------------0-0-0-0---------------------------------| 
                         . . . .
----------------------|
----------------------|
----------------------|
-0-0-0---0000---0-00--|
-0-0-0---0000---0-00--|
-0-0-0---0000---0-00--|
 . . .   ....   . ..

Guitar II
-----------------------------------------------------------------|
-----------------------------------------------------------------|
-----------------------------------------------------------------|
-0-----------------------0-0-0-0-0---------------<-<-<-<-<-<-<-<-| x 4
-0-----------------------0-0-0-0-0---------------<-<-<-<-<-<-<-<-|
-0-----------------------0-0-0-0-0---------------<-<-<-<-<-<-<-<-| 
                         . . . .                  
----------------------|
----------------------|
----------------------|
-0-0-0---0000---0-00--|
-0-0-0---0000---0-00--|
-0-0-0---0000---0-00--|
 . . .   ....   . ..

Fill:

----------------------|
----------------------|
----------------------|
-0-0-0---0000---0-00--| x 8
-0-0-0---0000---0-00--|
-0-0-0---0000---0-00--| 
 . . .   ....   . ..



Guitar I
-----------------------------------------------------------------|
-----------------------------------------------------------------|
-----------------------------------------------------------------|
-5-5--5--5-5--5--8-8--8--8-8--7--0-0--0--0-0--0--1-1--1--3-3--3--| x 2
-5-5--5--5-5--5--8-8--8--8-8--7--0-0--0--0-0--0--1-1--1--3-3--3--|
-5-5--5--5-5--5--8-8--8--8-8--7--0-0--0--0-0--0--1-1--1--3-3--3--| 

Guitar II
                   
---------------------|--------------------------------------|
------11--10---------|---11--10--------------11--10---------|
-------------12------|----------12-10---------------12------| Riff 1 x 2
----12----------12---|-12------------------12----------12---| Riff 2 x 2
---------------------|--------------------------------------|
---------------------|--------------------------------------| 


Verse

Guitar I
-----------------------------------------------------------------|
-----------------------------------------------------------------|
-7---8---7---8---7---8-----------7---8---7---8---7---8---7---8---| x 4
-------------------------0-0-0-0---------------------------------|
-------------------------0-0-0-0---------------------------------|
-------------------------0-0-0-0---------------------------------| 
                         . . . .
----------------------|
----------------------|
----------------------|
-0-0-0---0000---0-00--|
-0-0-0---0000---0-00--|
-0-0-0---0000---0-00--|
 . . .   ....   . ..

Guitar II
-----------------------------------------------------------------|
-----------------------------------------------------------------|
-----------------------------------------------------------------|
-0-----------------------0-0-0-0-0---------------<-<-<-<-<-<-<-<-| x 4
-0-----------------------0-0-0-0-0---------------<-<-<-<-<-<-<-<-|
-0-----------------------0-0-0-0-0---------------<-<-<-<-<-<-<-<-| 
                         . . . .                  
----------------------|
----------------------|
----------------------|
-0-0-0---0000---0-00--|
-0-0-0---0000---0-00--|
-0-0-0---0000---0-00--|
 . . .   ....   . ..

Fill:

----------------------|
----------------------|
----------------------|
-0-0-0---0000---0-00--| x 8
-0-0-0---0000---0-00--|
-0-0-0---0000---0-00--| 
 . . .   ....   . ..



-------11-----------11-11-11-11-11-11-|
-------15-----------15-15-15-15-15-15-|
--------------------------------------|
-1-0-0----0-0-1-0-0-------------------|
-1-0-0----0-0-1-0-0-------------------|
-1-0-0----0-0-1-0-0-------------------| 3x
 . . .    . . . . .

-------11-------------|
-------15-------------|
----------------------|
-1-0-0----0-0-1-0-0-0-|
-1-0-0----0-0-1-0-0-0-|
-1-0-0----0-0-1-0-0-0-|
 . . .    . . . . .

----------------11----11----11----11----11----11-|
-------------15----15----15----15----15----15----|
-------------------------------------------------|
-0-0-0-0-0-0-------------------------------------|
-0-0-0-0-0-0-------------------------------------|
-0-0-0-0-0-0-------------------------------------| 8x
 . . . . . .

Afer it Fades With...
---------|
---------|
---------|
-5-------|
-5-------|
-5-------|


Verse


PRE-OUTRO
guitar 1
-----------------------------------------------------------------|
-----------------------------------------------------------------|
-----------------------------------------------------------------|
-5----5--5----5--8----8--8----7--0----0--0----0--1----1--3----3--|
-5----5--5----5--8----8--8----7--0----0--0----0--1----1--3----3--|
-5----5--5----5--8----8--8----7--0----0--0----0--1----1--3----3--| 2x

guitar 2
                  2x |
---------------------|-----------------------------------------|
------11--10---------|------11--10--------------11--10---------|
-------------12------|-------------12-10---------------12------|
----12----------12---|----12------------------12----------12---|
---------------------|-----------------------------------------|
---------------------|-----------------------------------------| 2x


OUTRO
guitar 1
---------|
---------|
---------|
-5-------|
-5-------|
-5-------|

guitar 2
-----------------------------------------|
-----------------------------------------|
---------------12-------12-------12------|
------------12-------12-------12---------|
---------15-------13-------12-------10---|
------------------------------------12---|


There You Go, One Nation underground, A Great Album Indeed!

Any Comments,Questions Or Corrections Email Me Please

Please Rate For My Effort!!!!!!!!!!!!!!!!!!!!!!


Related for One Nation Underground tab
Advertisement will be closed in 10 seconds