Guitaretab - guitar tabs
Song name
# A B C D E F G H I J K L M N O P Q R S T U V W X Y Z

Illdisposed - When You Scream tab

--------------------------------
Illdisposed - When You Scream
--------------------------------
Tabbed by: Insomnia
Email/MSN: gertk666@hotmail.com
Date: 29.08.05
--------------------------------
Illdisposed - When You Scream

Album: 1-800 Vindication
--------------------------------

Tune: B - E - A - D - Gb - B

--------------------------------

 "  -  tremolo
 /  -  slide down
 \  -  slide up
 .  -  palm mute
 ~  -  long sound
 x  -  rest
 p  -  pull off
 h  -  hammer on
 tr -  trill
 () -  ghost note, sustained note
 *  -  artificial harmonics
 b  -  bend

--------------------------------

Intro
|-----------------------------------|
|-----------------------------------|
|-----------------------------------|
|-----------------------------------|
|-9\7--------------9\7--------------|
|-7\5-5-5-5-555555-7\5-5-5-5-555555-|
      . . .            . . .


 Riff 1
|-----------------------------------------------------------------------|
|-----------------------------------------------------------------------|
|-----------------------------------------------------------------------|
|-----------------------------------------------------------------------|
|-9\7--------------7/10--------------10\5--------------5/7--------------|
|-7\5-5-5-5-555555-5/-8-8-8-8-888888--8\3-3-3-3-333333-3/5-5-5-5-555555-|
      . . . ......      . . . ......      . . . ......     . . . ......
|-----------------------------------------------------------------------|
|-----------------------------------------------------------------------|
|-----------------------------------------------------------------------|
|-----------------------------------------------------------------------|
|-5/7--------------7/10--------------10\5--------------5/7--------------|
|-3/5-5-5-5-555555-5/-8-8-8-8-888888--8\3-3-3-3-333333-3/5-5-5-5-555555-|
      . . . ......      . . . ......      . . . ......     . . . ......


 Riff 2
|---------------------------------------------------------|
|---------------------------------------------------------|
|---------------------------------------------------------|
|---------------------------------------------------------|
|---------------------8---7-----------------------3---2---|
|-555-5-666-333-3-666---6---6-555-5-666-333-3-111---1---1-|

|-----------------------------------------------------|
|-----------------------------------------------------|
|-----------------------------------------------------|
|-----------------------------------------------------|
|---------------------8---7-------------------------2-|
|-555-5-666-333-3-666---6---6-555-5-666-333-3-111-1---|



 Riff 3 - [+Acoustic]
|-----------------------------------|
|-----------------------------------|
|-----------------------------------|
|-----------------------------------|
|-9-7-----7-10-----10-5-----5-7-----|
|-7-5-----5--8------8-3-----3-5-----|
[ Tab from: http://www.guitaretab.com/i/illdisposed/63591.html ]
|-----------------------------------|
|-----------------------------------|
|-----------------------------------|
|-----------------------------------|
|-5-7-----7-10-----10-5-----5-7-----|
|-3-5-----5--8------8-3-----3-5-----|



 Riff 4a
|--------------------------------------------------|
|--------------------------------------------------|
|--------------------------------------------------|
|--------------------------------------------------|
|--------------------------------------------------|
|-333-3-3-222-2-111-111-111-1-111-3-3"--2"--1"-----|
      . .     .             .     .


 Riff 4b
|------------------------------------------------|
|------------------------------------------------|
|------------------------------------------------|
|------------------------------------------------|
|------------------------------------------------|
|-3"--2"--1"-----3-333-3-222-2-111-111-111-1-111-|
                 .     .     .             .
|--------------------------------|
|--------------------------------|
|--------------------------------|
|--------------------------------|
|--------------------------------|
|-3"--2"--1"-----3-333-3-222-222-|
                 .     .


 Riff 5a                           Riff 5b - with variations
|-----------------------------|   |----------------------------|
|-----------------------------|   |----------------------------|
|-----------------------------|   |----------------------------|
|---------2----2--------------|   |----------------------------|
|---------0----0--------5/7-7-|   |--------7----7--------5/7-7-|
|-1"--------11---1"-----3/5-5-|   |-0"-----5-00-5-0"-----3/5-5-|


 Riff 4c
|--------------------------------------------------|
|--------------------------------------------------|
|--------------------------------------------------|
|--------------------------------------------------|
|--------------------------------------------------|
|-555-5-5-444-4-333-333-333-3-333-5-5"--4"--3"-----|
      . .     .             .     .


 Ending riff
|---------------------------------------------|
|---------------------------------------------|
|---------------------------------------------|
|---------------------------------------------|
|-------------------------------------------3-|
|-333-3-3-222-2-111-111-111-1-111-3-3"--2"--1-|
      . .     .             .     .

War, suffer, and later we will unite
Pearls, wanted, my back turned here is the fight
Hate, wine, yeah - yeah
Baby, here comes the pain

[chorus]
You scream at my wrongs
But yelling won't make it right
In time all you invoked
Was a game I played so right

Mind, hunger, now locked up every night
Try, feel - see things through my eyes
You - you made this hell, you really did
This is why I fell - when you

Screamed at my wrongs
Your yelling didn't succeed
In time all you gave
Was a game that tied my feet

They've stopped running now
And so have I

Count, shame - soon you'll feel me again
Endless, relentless - the word is revenge
Hurt, drugs, yeah - yeah
Honey - I owe you this much

\m/ ENJOY \m/
Related for When You Scream tab