Song name
# A B C D E F G H I J K L M N O P Q R S T U V W X Y Z

Illogicist - The Insight Eye tab

e|---------------------------------------------------------------------------------|
B|-------------------------------------------------------------|-------------------|
G|--7-------------------6-7-8--7----------6--7/10--9--6-|-7--------------------6---|
D|----8----7--8--6--7------------8----8--------------------|---8-----7--8--6-7-----|
A|-------7-----------------------------7----------------------|-----7--------------|
E|-------------------------------------------------------------|-------------------|

-----------------------|
-----------------------|
7-8-7--------6-7/10--9-|
-------8---8-----------|
--------------7--------|
-----------------------|

e|---------------------------------------------------------------------------------|
B|-------------------------------------------------------------|-------------------|
G|--7-------------------6-7-8--7----------6--7/10--9--6-|-7--------------------6---|
D|----8----7--8--6--7------------8----8--------------------|---8-----7--8--6-7-----|
A|-------7-----------------------------7----------------------|-----7--------------|
E|-------------------------------------------------------------|-------------------|

--------------------|
--------------------|
7-8-7--------6-7/10-|
-------8---8--------|
--------------7-----|
--------------------|

And then repeat the whole thing..note that are certain variations at the end of each phrase.


http://www.illogicist.com/
Tap to rate this tab
# A B C D E F G H I J K L M N O P Q R S T U V W X Y Z