Song name
# A B C D E F G H I J K L M N O P Q R S T U V W X Y Z

Illscarlett - Babylon Song tab

Guitar One
e|-7-7----7----7----7----7----7----7----7----7----7----7----7--|
B|-8-8----8----8----8----7----7----7----7----8----8----8----8--|
G|-9-9----9----9----9----8----8----8----8----9----9----9----9--| 
D|-9-9----9----9----9----9----9----9----9----9----9----9----9--|
A|-7-7----7----7----7----9----9----9----9----7----7----7----7--|
E|-7-7----7----7----7----7----7----7----7----7----7----7----7--|

Guitar Two
e|---------------7/8-------------------5-7---------------7/8-----|
B|-------------------5-7-----------7-7-----8-----------------5-7-|
G|---------------------------------------------------------------|
D|---------------------------------------------------------------|
A|---------------------------------------------------------------|
E|---------------------------------------------------------------|
Tap to rate this tab
# A B C D E F G H I J K L M N O P Q R S T U V W X Y Z