Song name
# A B C D E F G H I J K L M N O P Q R S T U V W X Y Z

Illscarlett - Whos Got It tab

illscarlett: Who's Got It
Tabbed by Daniel. M

|--------------5----7---8---7h8p/5----7--------------------------|
|-------------5-------------------------------------6------------|
|------------5-------------------------------------7-------------|
|-----------7-------------------------------------7--------------|
|----------7---------------------------------5---5---------------|
|-----5---5------------------------------------------------------|

|-----------5---7---8---10(v)----7h8p/5---5----------------------|
|----------6--------------------------------------------5--------|
|---------7--------------------------------------------5---------|
|--------7--------------------------------------------7----------|
|----5-----------------------------------------------7-----------|
|-------------------------------------------------5--------------|

|--------------5----7---8---7h8p/5----7--------------------------|
|-------------5-------------------------------------6------------|
|------------5-------------------------------------7-------------|
|-----------7-------------------------------------7--------------|
|----------7---------------------------------5---5---------------|
|-----5---5------------------------------------------------------|

|------5----7----8----8/10(v)-----10---12---13---15--12h13p/10---------12--|
|-----6--------------------------10-----------------------------------12---|
|----7--------------------------10-----------------------------------13----|
|---7----------------------------------------------------------------------|
|--------------------------------------------------------------------------|
|----------------------------------------------------------------0---------|

|-----12---10---8---7h8p/5---7---5---1h3p1p0---1---------------------------|
|----12--------------------------------------------3---1---0------5------5-|
|---13-----------------------------------------------------------5------7--|
|---------------------------------------------------------------7------6---|
|--------------------------------------------------------------7------0----|
|-------------------------------------------------------------5------0-----|
Tap to rate this tab
# A B C D E F G H I J K L M N O P Q R S T U V W X Y Z