Song name
# A B C D E F G H I J K L M N O P Q R S T U V W X Y Z

Imago - Spoliarium tab

Help us improve GuitareTab! Take a short survey!
artist:IMAGO
song:SPOLARIUM
tabbed_BY:GERNAN C. ELGARICO
friendster:eL_gUiTaRiStaH@yahoo.com.ph
yahoomessenger:narc2krizzkx

___FINK___
BAND MATES:GERNAN ELGARICO(lead Guitar)
           MICHELLE DUGAN(vocal)
           ARNEL BALBINO(drumer)
           ARNOLD ATIZON(Guitarist)
           JHON ALBERT SARICAL(bass)



into:(DRUMS only)
Verse 1:
(CHORDS Guitar 1:) 
    Am          Dm          G        E  E7
E|-0-0-----|-1-1-------|-3-3-------|---|---|
B|-1--1----|-3---3-----|-3---3-----|---|---|
G|-2----2--|-2-----2---|-0-----0---|-1-|-1-|
D|-2------2|-0-------0-|-0-------0-|-2-|-0-|
A|-0-------|-----------|-2---------|-2-|-2-|
e|---------|-----------|-3---------|-0-|-0-|

(CHORDS Guitar 2: Am dm G E E7  /Am Dm G E )
  Dumilim ang paligid
  May tumawag sa pangalan ko
  Labing-isang palapag
  Tinanong kung okey lang ako
 
REFRAIN 1:
(CHORDS Guitar 1 & 2: F C 4x E) 
  Sabay abot ng baso
  May naghihintay
  At bakit ba 'pag nagsawa na ako
  Biglang ayoko na...
 
Chorus:
        A         C#m  D
  At ngayon di pa rin alam
            Dm   E    A
  Kung ba't tayo nandito
         C#m            D
  Puwede bang itigil mo na
          Dm         
  Ang pag-ikot ng mundo

Verse 2: 
(do the chords in verse 1)
  Liwanag ng buwan
              E|-10^\-| 
              B|-10^\-|
              G|-10^\-|
              D|------|
              A|------|
              e|------|
  
  San Juan
  Di ko na nasasakyan
  Ang lahat ng bagay ay
  Gumuguhit na lang
  Sa 'king lalamunan.
 
 
Refrain 2:
(do the chords in refrain 1)
  Ewan mo at ewan natin (kung)
  Sinong (may/nag)pakana?
  At bakit ba tumilapon ang
  Gintong alak diyan sa paligid mo?
 
(Repeat Chorus)
 
(Ahhhhhhhh.........)

E|----------------------------------|------------8p7p87---7^--|
B|-14b-14b-14-15-12--14b-14b-14-15--|9--10--12----------9-----|
G|----------------------------------|-------------------------|
D|----------------------------------|-------------------------|
A|----------------------------------|-------------------------|
e|----------------------------------|-------------------------|

E|----------------------------------|-------------------------|
B|-14b-14b-14-15-12--14b-14b-14-15--|-9--8--9--12--15b--------|
G|----------------------------------|-------------------------|
D|----------------------------------|-------------------------|
A|----------------------------------|-------------------------|
e|----------------------------------|-------------------------|
 
Verse 3:
(do the chrods in verse 1) 
  Umiyak ang umaga
              E|-10^\-| 
              B|-10^\-|
              G|-10^\-|
              D|------|
              A|------|
              e|------|

  Anong sinulat ni Enteng at Joey diyan
  Sa pintong salamin?
  Di ko na mabasa
  Pagkat merong
           
  F Dm   Am
  nagbura-aah, haa
  F  Dm  Am
  Aah-hah-aah.


E|-17b---17-17--14-14h16-14\9-|--------------|
B|----------------------------|-15b-13h15p13-|
G|----------------------------|--------------|
D|----------------------------|--------------|
A|----------------------------|--------------|
e|----------------------------|--------------|

E|-----------------------------|----------------------|
B|-----------------------------|----------------------|
G|-12-9h10p7h9p5h7-7b-5h7------|----------------------|
D|------------------------7-5b-|----------------------|
A|-----------------------------|-5h-7-5--4--4h5-------|
e|-----------------------------|----------------5-3\--|

E|-----------------------------------------------------|
B|-----------------8b----------7h9h10-12--12b----------|
G|--7b-7b------5-7----7h8h10p8----------------10h12-10-|
D|--7b-7b--5h7-----------------------------------------|
A|--5b-5b----------------------------------------------|
e|-----------------------------------------------------|

Refrain:
  F          C
  Ewan mo at ewan natin kung
  F                   C
  Sinong nagpakana?
     F             C
  At bakit ba tumilapon ang
     F                  E
  Spoliarium diyan sa paligid mo?
 
Chorus:
        A         C#m  D
  At ngayon di pa rin alam
            Dm   E    A
  Kung ba't tayo nandito
         C#m            D
  Puwede bang itigil mo na
           Dm  E     A
  Ang pag-ikot ng mundo
         C#m            D
  Puwede bang itigil mo na
          Dm   E     A
  Ang pag-ikot ng mundo
         C#m            D
  Puwede bang itigil mo na
          Dm         
  Ang pag-ikot ng mundo... (8x and fade)


(END!!!!)

thankxxx nga pala sa mga classmates ko sa MRTHS ng TAGUIG
pati na sa GF ko at KA-banda ko....


et0 na yung una Kong Post sana pag ni-RATES!!! niyo tong tabs
ko dadamihan ko pa asahan marami pa akong alam kung gusto nyo
ako maka-UPSAP sa yahoomessenger na lang tyo mag usap anumang
tanong tyungkol d2!!..... thankxxx lahat sa mag re-RAtes
nito............................
Related for Spoliarium tab