Song name
# A B C D E F G H I J K L M N O P Q R S T U V W X Y Z

Imago - Ulitinreset tab

Artist: Imago
Song: Reset
Album: Take 3

Tuning: standard

. - palm mute
x - muted note
/ - slide up
\ - slide down
~ - ring

- sori for the song name.. coz using reset as a title gives me hard time sending it.. 
they kip on denying it anyways..here it is...

intro w/ feedback

* - strumming pattern are not exact just follow the song order

gt1
e|--------------------------------------------------------|
B|--------------------------------------------------------|
G|--------------------------------------------------------|
D|---------------------------------=----------------------|
A|--7-7-7-7-9-9-9-9-10-10-10-10-9-9-9-9-9-9-9-9-----------|
E|--5-5-5-5-7-7-7-7--8--8--8--8-7-7-7-7-7-7-7-7-----------|

gt2 (you can add this part... listen where it will enter)
e|------------------|
B|------------------|
G|--7-7-7-7-7-7-7-7-|
D|--x-x-x-x-x-x-x-x-|
A|--5-5-5-5-5-5-5-5-|
E|------------------|

verse

gt1 (low volume)

 pick up the phone dial the no tell all your friends were gonna raid your ears again

e|--------------------------------------------------------|
B|--------------------------------------------------------|
G|--7-7-7-7-7-7-7-7/10-10-10-10-10-10-10-10\9-9-9-9-9-9-9-|
D|--x-x-x-x-x-x-x-x--x--x--x--x--x--x--x--x x-x-x-x-x-x-x-|
A|--5-5-5-5-5-5-5-5/-8--8--8--8--8--8--8--8\7-7-7-7-7-7-7-|
E|--------------------------------------------------------|

gt2 palm muted (low volume)

e|----------------------------------------------------------|
B|----------------------------------------------------------|
G|----------------------------------------------------------|
D|----------------------------------------------------------|
A|--7-7-7-7-7-7-7-7/10-10-10-10-10-10-10-10\9-9-9-9-9-9-9-9-|
E|--5-5-5-5-5-5-5-5/8--8--8--8--8--8--8--8-\7-7-7-7-7-7-7-7-|
 pm .......................................................

after verse intro riff
e|--------------------------------------------------------|
B|--------------------------------------------------------|
G|--------------------------------------------------------|
D|--------------------------------------------------------|
A|--7-7-7-7/9-9-9-9/10-10-10-10\9-9-9-9-9-9-9-9-----------|
E|--5-5-5-5/7-7-7-7/-8--8--8--8\7-7-7-7-7-7-7-7-----------|


message one message two if message fails try again finger somersaulting - dont miss the cue
e|--------------------------------------------------------|
B|--------------------------------------------------------|
G|--7-7-7-7-7-7-7-7/10-10-10-10-10-10-10-10\9-9-9-9-9-9-9-|
D|--x-x-x-x-x-x-x-x--x--x--x--x--x--x--x--x x-x-x-x-x-x-x-|
A|--5-5-5-5-5-5-5-5/-8--8--8--8--8--8--8--8\7-7-7-7-7-7-7-|
E|--------------------------------------------------------|

gt2 palm muted (low volume)

e|----------------------------------------------------------|
B|----------------------------------------------------------|
G|----------------------------------------------------------|
D|----------------------------------------------------------|
A|--7-7-7-7-7-7-7-7/10-10-10-10-10-10-10-10\9-9-9-9-9-9-9-9-|
E|--5-5-5-5-5-5-5-5/8--8--8--8--8--8--8--8-\7-7-7-7-7-7-7-7-|
 pm .......................................................

after verse intro riff
e|--------------------------------------------------------|
B|--------------------------------------------------------|
G|--------------------------------------------------------|
D|--------------------------------------------------------|
A|--7-7-7-7/9-9-9-9/10-10-10-10\9-9-9-9-9-9-9-9-----------|
E|--5-5-5-5/7-7-7-7/-8--8--8--8\7-7-7-7-7-7-7-7-----------|

prechorus

   its nice to see its been a while all good things just take sometime

  gt1                                             gt2
e|-------------------------------------------|    ----------------|
B|-------------------------------------------|    ----------------|
G|-------------------------------------------|    -777~~~-555~~~--|
D|--7-7-7-7-7-7-7-7-5-5-5-5-5-5-5-5----------|    -xxx~~~-xxx~~~--|
A|--7-7-7-7-7-7-7-7-5-5-5-5-5-5-5-5----------|    -555~~~-333~~~--|
E|--5-5-5-5-5-5-5-5-3-3-3-3-3-3-3-3----------|    -------~~~------|
pm  ...............................


chorus

  reset were goin round again....
e|--------------------------------------------------------|
B|--------------------------------------------------------|
G|--------------------------------------------------------|
D|--------------------------------------------------------|
A|--7-7-7-7/9-9-9-9/10-10-10-10\9-9-9-9-9-9-9-9-----------|
E|--5-5-5-5/7-7-7-7/-8--8--8--8\7-7-7-7-7-7-7-7-----------|


  just follow the song order at the bottom

last chord
e|--------------|
B|--------------|
G|--------------|
D|--7~----------|
A|--7~----------|
E|--5~----------|

>> song order

intro 4x
verse 2x
pre chorus 1x
intro 2x
verse 2x
pre chorus 2x
chorus 8x
intro 2x
verse 2x (this time gt1 is palm muted)
pre chorus 2x
chorus 8x


~~~
Tap to rate this tab
# A B C D E F G H I J K L M N O P Q R S T U V W X Y Z