Song name
# A B C D E F G H I J K L M N O P Q R S T U V W X Y Z

Imago - Sundo tab

Help us improve GuitareTab! Take a short survey!
Title:Sundo
Artist:Imago
Tabbed by:xEph
          pseudosymphonia@yahoo.com
	  www.friendster.com/xeph

*This is tabbed for single guitar only and  not 100% accurate.*
*I would like to dedicate this tab to my friends who requested it.*
*For corrections, suggestions,etc... Just post it here or message me personally.*

Legend:
x - dead note
/ - Slide
()- Ghost notes, you can either play it or not
~ - Let it ring
p- pull-off

Tuning:Standard

Riff 1: Intro

e-----4-4--------4-4-------------------------------------|
B--5~5-5--5~--5~5-5--5~---5~5-7-5-7-5~--7~-7--7P5--------|
G--6~----6----6~----6-----6~-------6----7~7--7-----------|
D--7~---------6~----------5~------------7~---------------|
A-(0)--------(0)---------(7)-----------(5)---------------|
E------------------------(5)-----------------------------|

e-----4-4--------4-4-------------------------------------|
B--5~5-5--5~--5~5-5--5~---5~5-7-5-7-5~--7~-7-7~----------|
G--6~----6----6~----6-----6~-------6----7~7-7------------|
D--7~---------6~----------5~------------7~---------------|
A-(0)--------(0)---------(7)-----------(5)---------------|
E------------------------(5)-----------------------------|

Verse  Chords

   A  AM7 A7   D
e--0---0---0---2---|
B--2---2---2---3---|      
G--2---1---0---2---| 2x *There's a strum pattern,
D-(2)-(2)-(2)-(0)--|      just get it yourself.*
A-(0)-(0)-(0)------|
E------------------|

Verse 1

             A(pause)
Kay tagal kong sinusuyod
         AM7
ang buong mundo
       A7
Para hanapin,
       D
para hanapin ka
       A
Nilibot ang distrito
       AM7
ng iyong lumbay
        A7
Pupulutin,
         D
pupulutin ka


Pre-Chorus
     
     E
e-----------|
B--- -------|
G-(1)----9--|
D--2--o--9--|
A--2--r--7--|
E--0--------|

E
  Sinusundo kita,
E
  Sinusundo...

Chorus Chords

    A	Emx  Bm  D
e|--0----3-------2---|
B|--2----3---3---3---|
G|--2----0---4---2---| 2x strumming pattern not indicated
D|-(2)---2---4--(0)--|
A|-(0)---2---2-------|
E|------(0)----------|

A       Emx   Bm
Asahan  mo    mula ngayon
D              A 
pag-ibig koy sayo
       Emx   Bm
Asahan  mo    mula ngayon
D              Riff2 
pag-ibig koy sayo


Riff 2:
e-----4-4--------4-4----------------------------------|
B--5~5-5--5~--5~5-5--5~---5~5-7-5-7-5~--5~------------|
G--6~----6----6~----6-----6~-------6----6~------------|
D--7~---------6~----------5~------------7~------------|
A-(0)--------(0)---------(7)-----------(0)------------|
E------------------------(5)--------------------------|


Verse 2: A AM7 A7   D

     	A     
Sa akin mo isabit
        AM7
ang pangarap mo
        A7
Di kukulangin
        D
ang ibibigay
     A
Isuko ang kaba
        AM7 
tuluyan kang bumitaw
        A7
Ikay manalig
       D
Manalig ka...

Pre-Chorus

E
  Sinusundo kita,
E
  Sinusundo...

Chorus
A         Emx   Bm
  Asahan  mo    mula ngayon
D              A 
pag-ibig koy sayo
        Emx   Bm
Asahan  mo    mula ngayon
D              A 
pag-ibig koy sayo
A       Emx   Bm
Asahan  mo    mula ngayon
D              A 
pag-ibig koy sayo
        Emx   Bm
Asahan  mo    mula ngayon
D              A 
pag-ibig koy sayo
	Emx
Asahan mo Handa na sa liwanag mo
   Bm
Sinuyod ang buong mundo
   D                    A
Maghihintay sayong sundo
	Emx
Asahan mo Handa na sa liwanag mo
   Bm
Sinuyod ang buong mundo
   D                    A
Maghihintay sayong sundo
	Emx
Asahan mo Handa na sa liwanag mo
   Bm
Sinuyod ang buong mundo
   D                    A(starts outro)
Maghihintay sayong sundo

Outro: 
         Emx   Bm
  Asahan  mo    mula ngayon
D              A 
pag-ibig koy sayo
        Emx   Bm(pause)
Asahan  mo    oooh...


	-end-

Related for Sundo tab