Song name
# A B C D E F G H I J K L M N O P Q R S T U V W X Y Z

Imany - You Will Never Know tab

Imany - You will never know

Artist website : http://www.imanymusic.com/

Fait à partir de cette vidéo : http://www.youtube.com/watch?v=9FTBLVEPEys

Vous trouverez une vidéo explicative sur youtube ( Pseudo Ipsaous ).

Capo 3

Intro

|------------0-----------|
|------1--------1-----1--|
|---------4--------4-----|  X 2
|------------------------|
|--0---------------------|
|------------------------|

|---------------------------------------------------|
|------------0--------------------------------------|
|------0--------0-----0--------0-----0-----0-----0--|
|---------4--------4--------------4-----------4-----|
|---------------------------------------------------|
|--0----------------------0-------------3-----------|


|------------0--------------------------------------|
|------1--------1-----1-----1-----1-----1-----0-----|
|---------4--------4-----------4-----------4--------|
|---------------------------------------------------|
|--0---------------------3-----------2--------------|
|---------------------------------------------------|

|---------------------------------------------------|
|------------0--------------------------------------|
|------0--------0-----0--------0-----0-----0-----0--|
|---------4--------4--------------4-----------4-----|
|---------------------------------------------------|
|--0----------------------0-------------3-----------|

Début du chant

|------------0--------------------------------------|
|------1--------1-----1-----1-----1-----1-----0-----|
|---------4--------4-----------4-----------4--------|
|---------------------------------------------------|
|--0---------------------3-----------2--------------|
|---------------------------------------------------|     2 Fois

|---------------------------------------------------|
|------------0--------------------------------------|
|------0--------0-----0--------0-----0-----0-----0--|
|---------4--------4--------------4-----------4-----|
|---------------------------------------------------|
|--0----------------------0-------------3-----------|

|----------0-------------------0----------|
|----1--------1---1------1--------1---1---|
|-------0-------0-----------0-------0-----|
|-----------------------------------------|
|-3-------------------2-------------------|
|-----------------------------------------|

|----------0---------|
|----1-------1---1---|
|-------0------0-----| 2 Fois
|--------------------|
|-0------------------|
|--------------------|

|----------2h3p2-------2----|
|------3---------3-----3----|
|----2---2---------2---2----|
|-0--------------------0----|
|---------------------------|
|---------------------------|


Accords : Em - Am - D - Bm 			|
						| Faire ça 4 fois.
Rythmique : B H B(mute)H  2 fois par accord.    |



Puis on recommence sur ça :


|------------0-----------|
|------1--------1-----1--|
|---------4--------4-----|  X 2
|------------------------|
|--0---------------------|
|------------------------|

|---------------------------------------------------|
|------------0--------------------------------------|
|------0--------0-----0--------0-----0-----0-----0--|
|---------4--------4--------------4-----------4-----|
|---------------------------------------------------|
|--0----------------------0-------------3-----------|

|------------0--------------------------------------|
|------1--------1-----1-----1-----1-----1-----0-----|
|---------4--------4-----------4-----------4--------|
|---------------------------------------------------|
|--0---------------------3-----------2--------------|
|---------------------------------------------------|     2 Fois

|---------------------------------------------------|
|------------0--------------------------------------|
|------0--------0-----0--------0-----0-----0-----0--|
|---------4--------4--------------4-----------4-----|
|---------------------------------------------------|
|--0----------------------0-------------3-----------|

|----------0-------------------0----------|
|----1--------1---1------1--------1---1---|
|-------0-------0-----------0-------0-----|
|-----------------------------------------|
|-3-------------------2-------------------|
|-----------------------------------------|

|----------0---------|
|----1-------1---1---|
|-------0------0-----| 2 Fois
|--------------------|
|-0------------------|
|--------------------|

|----------2h3p2-------2----|
|------3---------3-----3----|
|----2---2---------2---2----|
|-0--------------------0----|
|---------------------------|
|---------------------------|


Accords : Em - Am - D - Bm 			|
						| Faire ça 6 fois.
Rythmique : B H B(mute)H  2 fois par accord.    |


Ensuite en on a juste Am - Em à faire 2 fois.
Pour la rythmique on joue des coups vers le bas qu'on étouffe pour pas
qu'ils sonnent.


|----------0-------------------0----------|
|----1--------1---1------1--------1---1---|
|-------0-------0-----------0-------0-----|
|-----------------------------------------|
|-3-------------------2-------------------|
|-----------------------------------------|

|----------0---------|
|----1-------1---1---|
|-------0------0-----|  on finit sur bm ( x24432 ) Rythmique : ( B B BHB )
|--------------------|
|-0------------------|
|--------------------|

Accords : Em - Am - D - Bm 			|
						| Faire ça 4 fois et on finit sur Un Em
Rythmique : B H B(mute)H  2 fois par accord.    |(juste un coup vers le Bas )
Tap to rate this tab
# A B C D E F G H I J K L M N O P Q R S T U V W X Y Z