Song name
# A B C D E F G H I J K L M N O P Q R S T U V W X Y Z

Imik - Piya tab

Tab By: LUqman Khan...secret__001@hotmail.com

 its ma first tab...but beleive me its rockin!..its dam easy!
 ok.....here we go.....


 ----0-----------0----------------------|
 ----0-----------0----------------------|
 -------------9-------------------------|
 ----------9----------------------------|
 --7---7--------------------------------|
 ---------------------------------------|
  teri yadein......

 ----0-----------0----------------------|
 ----0-----------0----------------------|
 -------------6-------------------------|
 ----------6----------------------------|
 --4---4--------------------------------|
 ---------------------------------------|
 mulaqatee.....

 ----0-----------0----------------------|
 ----0-----------0----------------------|
 -------------2-------------------------|
 ----------2----------------------------|
 --0---0--------------------------------|
 ---------------------------------------|
wo raaaatein......

 ----0-----------0----------------------|
 ----0-----------0----------------------|
 -------------4-------------------------|
 ----------4----------------------------|
 --2---2--------------------------------|
 ---------------------------------------|
 aur batein......


 Repeat this a couple ov time...and then start singin start singin....

suna mera jaha bhola mein hoon kaha...jab tak hai jane jaa terA raho ga 
start the thre chords...just listen to the song once...its soooo easy!!!!


  ----0-----------0---------------------|
 ----0-----------0----------------------|
 -------------6-------------------------|
 ----------6----------------------------|
 --4---4--------------------------------|
 ---------------------------------------|

  ----0-----------0---------------------|
 ----0-----------0----------------------|
 -------------4-------------------------|
 ----------4----------------------------|
 --2---2--------------------------------|
 ---------------------------------------|

----0-----------0-----------------------|
 ----0-----------0----------------------|
 -------------2-------------------------|
 ----------2----------------------------|
 --0---0--------------------------------|
 ---------------------------------------|

      luQman~
Tap to rate this tab
# A B C D E F G H I J K L M N O P Q R S T U V W X Y Z