Song name
# A B C D E F G H I J K L M N O P Q R S T U V W X Y Z

Immortal Technique - Positive Balance tab

Very simple like most rap songs but still fuckin awesome. Immortal Technique is awesome!!!!!!!!!!

Play this part as the intro and at the end of every verse.

e|------13-------13---------------13---| 
b|----15--15---15--15---15--15--15--15-|    
g|--15-------15-------15--15--15-------|
d|-------------------------------------|
a|-------------------------------------|   
E|-------------------------------------| 
 
 
Play this part throughout all the verses.

e|------13--13-------------13--13------|
b|----15--15--15--15-----15--15--15--15|
g|--15----------15-----14----------14--|
d|-------------------------------------|
a|-------------------------------------|
E|-------------------------------------|

And thats really all it is. Enjoy!
Tap to rate this tab
# A B C D E F G H I J K L M N O P Q R S T U V W X Y Z