Song name
# A B C D E F G H I J K L M N O P Q R S T U V W X Y Z

Immortal - Circling Above In Time Before Time tab

#----------------------------------PLEASE NOTE---------------------------------#
#This file is the author's own work and represents their interpretation of the #
#song. You may only use this file for private study, scholarship, or research. #
#------------------------------------------------------------------------------#

  
  
Artist:Immortal
Song:Circling Above In Time Before Time
Album:Battles In The North
Tuning:Standard


Copyright (c) (Osmoe Productions) (1995)
Version 1.0 - (3-11-2005)

Transcripted By:(Necromajesty)
Email:          (Necromajesty27@hotmail.com)

Key
.Palm Mute

RiffA1
e|---------------------|
B|---------------------|
G|---------------------|
D|-222-0---------------|
A|--------0-2332-0-----|
E|---------------------|

e|-------------------|
B|-------------------|
G|-------------------|
D|-222-0-----33-2-0--|
A|-------0-2---------|
E|-------------------|

RifffA2
e|----------------|
B|----------------|
G|----------------|
D|-555-4-2-0-4444-|
A|----------------|
E|----------------|


e|--------------|
B|--------------|
G|--------------|
D|-555-4-2------|
A|---------3-5--|
E|--------------|

RiffB1
e|---------------|
B|---------------|
G|---------------|
D|-3333-44-------|
A|-3333-44-------|
E|-1111-22-------|

RiffB2
not sure but maybe right
e|--------------|
B|--------------|
G|--------------|
D|-22-00-22-33--|
A|-22-00-22-33--|
E|-00----00-11--|

RiffC1
e|---------------------------------------|
B|---------------------------------------|
G|-99-11-9-11-12-11-9-11-9-11-12-11-9-7-2|
D|-99------------------------------------|
A|-77------------------------------------|
E|---------------------------------------|
   ..
Play after he says CIRCLING ABOVE IN BEFORE TIME
G|11-9-11-12-11-9-11-9-11-12-11-9-7|
Tap to rate this tab
# A B C D E F G H I J K L M N O P Q R S T U V W X Y Z