Guitaretab - guitar tabs
Song name
# A B C D E F G H I J K L M N O P Q R S T U V W X Y Z

Immortal - Solarfall tab

Immortal - Solarfall
Tabbed and transcribed by HellPatrol (hellpatrol69x@geocities.com)
Listen to the record for timing and how much each riff is played.
This and other tabs can be found on my page.
Go check it out at http://www.geocities.com/BourbonStreet/Quarter/1571/
Normal Tuning

All guitar doubled(?)

Riff1
|-------------------------------------------------------|
|-------------------------------------------------------|
|---------------------------------------------------5~--|
|-----7h9----5h7----4h5-5-------7h9-----5h7-----4h5-----|
|-------------------------5-----------------------------|
|-000-----000---000---------000-----000-----000---------|

Riff1 ending
|-------------------------------------------------------|
|-------------------------------------------------------|
|-----------------------------9-9--7-7--5-5--4----------|
|-----7h9----5h7----4h5-5-----9-9--7-7--5-5--4--5-------|
|-------------------------5---7-7--5-5--3-3--2--5-------|
|-000-----000---000-----------------------------3-------|

Riff2
|------------------------------------------|
|------------------------------------------|
|-9-9--1111-12-12-----------9-9--1111-7----|
|-9-9--1111-12-12--9--97----9-9--1111-7----|
|-7-7--9-9--10-10---10--910-7-7--9-9--5----|
|------------------------------------------|

|----------------------------------------------|
|----------------------------------------------|
|-9-9--1111-12-12-----------9-9--1111-7---9-9--|
|-9-9--1111-12-12--9--97----9-9--1111-7---9-9--|
|-7-7--9-9--10-10---10--910-7-7--9-9--5---7-7--|
|----------------------------------------------|

Riff3 (vocals during this one)
|--------------------------------|
|--------------------------------|
|-9-9-9-9------------------------|
|-9-9-9-9---------8---------7----|
|-7-7-7-7---------8---------5----|
|---------0-0-0-0---0-0-0-0------|

|---------------------------------------|
|---------------------------------------|
|-9-9-9-9-------------------------------|
|-9-9-9-9---------8---------2-----------|
|-7-7-7-7---------8-----------5-3-2-----|
|---------0-0-0-0---0-0-0-0---------5-3-|

Riff4
|----------------------------------------------------|
|----------------------------------------------------|
|-7/9-9-9------10-10--------7/9-9-9------10\5--7--7--|
|-7/9-9-9------10-10-10-10--7/9-9-9------10\5--7--7--|
|-5/7-7-7------8--8--10-10--5/7-7-7------8-\3--5--5--|
|---------0--0-------8--8-----------0--0-------------|

Riff5 - accoustic, strike a C5 at the beginning first time played
|------------------------------------------------------|
|------------------------------------------------------|
|---------------0-------------------0-----------0------|
|------0--0--0-----0--0--0----2--0-----0--2--0-----0---|
|-------3--3--3--3--3--3--3----2--2--2--2--2--2--2--2--|
|-1------1--1--1--1--1--1--1----0--0--0--0--0--0--0--0-|

Riff6
|---------------------------------------------------------------------------|
|---------------------------------------------------------------------------|
|-111111-9------------------------------111111-9----------------------------|
|-111111-9-----------9-9-9--7-----------111111-9---------9-9-9--555-777-444-|
|-9-9-9--7--2-2-2-2--101010-9--2-2-2-2--9-9-9--7-2-2-2-2-101010-777-999-555-|
|-----------0-0-0-0------------0-0-0-0-----------0-0-0-0--------------------|

|---------------------------------------------------------------------------|
|---------------------------------------------------------------------------|
|-111111-9------------------------------111111-9----------------------------|
|-111111-9-----------9-9-9--7-----------111111-9---------9-9-9--555-555-777-|
|-9-9-9--7--2-2-2-2--101010-9--2-2-2-2--9-9-9--7-2-2-2-2-101010-777-777-999-|
|-----------0-0-0-0------------0-0-0-0-----------0-0-0-0--------------------|

Riff7 - basically the same as 5
|------------------------------------------------------|
|------------------------------------------------------|
|---------------0-------------------0-----------0------|
|------0--0--0-----0--0--0----2--0-----0--2--0-----0---|
|-------3--3--3--3--3--3--3----2--2--2--2--2--2--2--2--|
|-1------1--1--1--1--1--1--1----0--0--0--0--0--0--0--0-|

|------------------------------------------------------|
|------------------------------------------------------|
|---------------0--------------------------------------|
|------0--0--0-----0--0--0----2--0--3--0--2--0--3--0---|
|-------3--3--3--3--3--3--3----2--2--2--2--2--2--2--2--|
|-1------1--1--1--1--1--1--1----0--0--0--0--0--0--0--0-|

Riff8
|---------------------------------------|
|---------------------------------------|
|-5-------------7--4--------------------|
|-5-------------7--4--------------------|
|-3-------------5--2--------------------|
|---------------------------------------|
|                                       |
|---------------------------------------|
|-----6~---------------5h6--5--0--------|
|--------5~-----------------------0-----|
|------------------------------------0--|
|---------------------------------------|
|---------------------------------------|

|-------------------------------------|
|-------------------------------------|
|-5-------------7---------------------|
|-5-------------7--4--2--3-2-0-2-0-2--|
|-3-------------5--2--0---------------|
|-------------------------------------|
|                                     |
|-------------------------------------|
|-----6~------------------------------|
|--------5~---------------------------|
|-------------------------------------|
|-------------------------------------|
|-------------------------------------|

At the next riff3, play an extra 
amount of E5 chords in the beginning of it.

THAT'S IT!
[ Tab from: http://www.guitaretab.com/i/immortal/25571.html ]
Related for Solarfall tab
Solarfall chords by Immortal