Song name
# A B C D E F G H I J K L M N O P Q R S T U V W X Y Z

Immortal - Battle Fields tab

 
                         IMMORTAL - BATTLE FIELDS
                
                          from "Blizzard Beast"
              
 
 Transcribed by Joni Lehto
 
 This is not from the beginning.

 e:------------------------------------------|
 B:*----------------------------------------*|
 G:------------------------------------------|  Ending at the second time
 D:----999999---777777---999999---77-55-44---|  is a bit different
 A:*---777777---555555---777777---55-33-22--*|
 E:--0--------0--------0--------0------------|

 

 This is from somewhere in the middle (or something)

 e:----------------------------------------------------------|
 B:*--------------------------------------------------------*|
 G:----------------------------------------------------------|
 D:----------------------------------------------------------|
 A:*-777777-------------555555--777777-------------555------*|
 E:---------888-555-888----------------888-555-888-----7777--|



 e:---------------------------------------------------------------|
 B:*-------------------------------------------------------------*|
 G:---------------------------------------------------------------|
 D:--7---6----6---6--7---6----6---6--7---6----6---6--5---6--------|
 A:*-5---4----4---4--5---4----4---4--5---4----4---4--7---4---6/7-*|
 E:----0---00---0------0---00---0------0---00---0------0---0-4/5--|
Tap to rate this tab
# A B C D E F G H I J K L M N O P Q R S T U V W X Y Z