Song name
# A B C D E F G H I J K L M N O P Q R S T U V W X Y Z

Immortal - A Sign For The North Horde To Ride tab

###############################################
############### DOWNLOADED FROM ###############
######## W W W . I M M O R T A L . N U ########
######## THE OFFICIAL IMMORTAL WEBSITE ########
###############################################

	Charge de: Au coeur du Black Metal
	http://i-france.com/kabal

  IMMORTAL: A sign for the north horde to ride


   <----------Accompagnement principal------------->4x                     
E||------------------------|------------------------||--------------------|
B||------------------------|------------------------||--------------------|
G||*-----------------------|-----------------------*||--3-----------------|
D||*-----------------------|-----------------------*||-----------4--------|
A||---7--------------5--6--|--7--------------8--6---||--8--------3--------|
E||---5--1-1-1-1-1-1-3--4--|--5--1-1-1-1-1-1-6--4---||--6--------1--------|


                      2x                                               
----------------------||-----------------------|--4--------2---4---2--| )
----------------6-----||--4--------5---44---5--|--3--------1---3---1--| ) Guitare2
--3--------2-------5--||--3--------4---33---4--|----------------------| )
----------------------||-----------------------|----------------------|
--8--------7----7--7--||--6--------7---66---7--|--6--------4---6---4--| ) Guitare1
--6--------5----5--5--||--6--------7---66---7--|--6--------4---6---4--| )


                                                                     
--4--------5---7---5--|--4--------2---4----2--|--1--------2---1---2--| )
--3--------4---6---4--|--3--------1---3----1--|--0--------1---0---1--| )
----------------------|-----------------------|----------------------|
---------------4------|-----------------------|----------------------|
--6--------7---4---7--|--6--------4---6----4--|--3--------4---3---4--| )
--6--------7-------7--|--6--------4---6----4--|--3--------4---3---4--| )


                                                                   
--1--------2--------|--4--------5---4----5--|--4--------2---4---2--| )
--0--------1--------|--3--------4---3----4--|--3--------1---3---1--| )
--------------------|-----------------------|----------------------|
--------------------|-----------------------|----------------------|
--3--------4--------|--6--------7---6----7--|--6--------4---6---4--| )
--3--------4--------|--6--------7---6----7--|--6--------4---6---4--| )


                                               
--4--------5---7---5--|--4--------2---4----2--|| )
--3--------4---6---4--|--3--------1---3----1--|| )
----------------------|-----------------------||
---------------4------|-----------------------||
--6--------7---4---7--|--6--------4---6----4--|| )
--6--------7-------7--|--6--------4---6----4--|| )
Tap to rate this tab
# A B C D E F G H I J K L M N O P Q R S T U V W X Y Z