Song name
# A B C D E F G H I J K L M N O P Q R S T U V W X Y Z

Immortal - Sons Of Northern Darkness tab

Immortal - Sons of Northern Darkness


Tabbed by Wrshredder


Tune 1 step down

fig. 1

D----------------------------------------------------------------------------|
A----------------------------------------------------------------------------|
F----------------------------------------------------------------------------|
C------5------7-7-----7------7..---------5------7-7-----7----0-4-5--2-2------|
G------7------5-5-----5------8..---------7------5-5-----5-55-5-5-5--2-2------|
D--0000--0000-----0000--0000-10..----0000--0000-----0000--55-5-5-5--0-0------|


D-----------------------------------------------------------------------------|
A-----------------------------------------------------------------------------|
F-----------------------------------------------------------------------------|
C------5------7-7-----7------7..---------5------7-7-----7---------------------|
G------7------5-5-----5------8..---------7------5-5-----5----7-5-3-7-5-3------|
D--0000--0000-----0000--0000-10..----0000--0000-----0000--00-------------7-5--|


fig. 2

D------------------------------------|----------------------------------------|
A------------------------------------|----------------------------------------|
F-------9..-----9..----9..--11-12----|--5-------------------------------------|
C-------5..-----5..----7..--7--8-----|--6-------------------------------------|
G-------7..-----7..----5..--9--10----|--6-------------------------------------|
D--0000-----0000---0000--------------|--4-------------------------------------|
                                         ..Riding..

fig. 3

D-----------------------------------------------------------------------------|
A-----------------------------------------------------------------------------|
F-----------------------------------------------------------------------------|
C--9999----8888----5555-------------------------------------------------------|
G--7777----7777----7777----555-999-888-8--------------------------------------|
D------0-00----0-00----0-00------------6--------------------------------------|


fig. 4
                                              (these are the intervals played at the end 
fig 4)
D---------------------------------------------------------|----------------------|
A---------------------------------------------------------|----------------------|
F-------3.----9.---7/9...------------9--11-..-12..-11.-9--|-13-14---16-17---19---|
C--5..--4..---9.---7/9...----5.--7..-9--x--..-x-..-x-.-x--|-x--x----x--x----x----|
G--2..--4..---7.-x-5/7...----2.--7..-7--9--..-10..-9-.-7--|-11-12---14-15---17---|
D-3----2-----0---x----------3----5..----------------------|----------------------|
Tap to rate this tab
# A B C D E F G H I J K L M N O P Q R S T U V W X Y Z