Guitaretab - guitar tabs
Song name
# A B C D E F G H I J K L M N O P Q R S T U V W X Y Z

Immortallity - Bleeding Pumpkin tab

Immortallity 
Bleeding Pumpkin
Taylor, jstroc@gateway.net
Bleeding Pumpkin 
by Immortallity

VERSE PART
[ Tab from: http://www.guitaretab.com/i/immortallity/27481.html ]
-------------------------------------------------------------------
-------------------------------------------------------------------
-------------------------------------------------------------------
-------------------------------------------------------------------
--2--2--2--2--2--2--2--3--3--3--3--3--3--3--4--4--4--4--4--4--4--3-
--1--1--1--1--1--1--1--2--2--2--2--2--2--2--3--3--3--3--3--3--3--2-

------------------|
------------------|
------------------|
------------------|
-3--3--3--3--3--3-|
-2--2--2--2--2--2-|

CHORUS PART

||: Em G Em G Em C Em C :|| ->  Em G Em G Em G Em F
               repeat 1 time

SOLO PART

Em G D G Em C G C 

There you go, ENJOY!!

Bleeding Pumpkin chords by Immortallity