Song name
# A B C D E F G H I J K L M N O P Q R S T U V W X Y Z

Impaled Nazarene - Madness Behind tab

Impaled Nazarene - The Madness Behind

Tabbed by Antsa (plug_spank@hotmail.com)

E----------|
B----------|
G----------|
D-4-4-4-4--|
A-2-2-2-2--|
E----------|
              			alternate ending played before second riff
E----------------------------------------------------------------------|----------------|
B----------------------------------------------------------------------|----------------|
G-4--4-4--4--4-4--4--4-4--4--4-4---------------------------------------|------2------2--|
D-2--2-2--2--2-2--2--2-2--2--2-2-4--4-4--5--5-5--5--5-5-------5------4-|-0000-0-0000-0--|
A--------------------------------2--2-2--3--3-3--3--3-3--3333-3-2222-2-|----------------|
E----------------------------------------------------------------------|----------------|
                                                         ....   ....
E-------------------------------------------|
B-------------------------------------------|
G-----444-545-444---------------------------|
D-222-------------55---------44-54-55555555-|
A--------------------33--222----------------|
E-------------------------------------------|

E-------------------------------------------|
B-------------------------------------------|
G-------------------------------------------|
D-----555-65-66666666-----333-43-444444444--|
A-333-----------------111-------------------|
E-------------------------------------------|

E-------------------------------------|
B-------------------------------------|
G-------------------------------------|
D-4--------5--------5--------7-5-4-2--|
A-2-222222-3-222222-3-222222-5-3-2-0--|
E-------------------------------------|
    ......   ......   ......

E-------------------------------------------------------------|
B-------------------------------------------------------------|
G-------------------------------------------------------------|
D-2-222-2-222-2-222-2-222-------------------------------------|...
A-------------------------3-333-3-333-3-333-3-333-2-222-2-222-|...
E-------------------------------------------------------------|...
  . ... . ... . ... . ... . ... . ... . ... . ... . ... . ...
Tap to rate this tab
# A B C D E F G H I J K L M N O P Q R S T U V W X Y Z