Song name
# A B C D E F G H I J K L M N O P Q R S T U V W X Y Z

Impellitteri - Kingdom Of Light tab

My first tab

  *  *  *         *  *  *                       * * *
----------------------------------------------------------------------------|
----------------------------------------------------------------------------|
-------------11--------------8-------------8-------------8----7-------------|
-------------11--------------8-------------8-------------8----7-------------|
-------------9---------------6-------------6-------------6----5-------------|
--0--0--0---------0--0--0-----------------------0-0-0-----------------------|


  *  *  *         *  *  *                       * * *
----------------------------------------------------------------------------|
----------------------------------------------------------------------------|
-------------11--------------8-------------4-------------4----6-------------|
-------------11--------------8-------------4-------------4----6-------------|
-------------9---------------6-------------2-------------2----4-------------|
--0--0--0---------0--0--0-----------------------0-0-0-----------------------|

* Palm Muting
Tap to rate this tab
# A B C D E F G H I J K L M N O P Q R S T U V W X Y Z