Song name
# A B C D E F G H I J K L M N O P Q R S T U V W X Y Z

Impending Doom - Mark Of The Faithful tab

FOIST TAB! sorry i couldnt tab the whole thing, it's a little difficult :/ but here's 
i got. ooh yea it's tuned in Drop A, from low to high
A-E-A-D-F#-B

|--------------------------------------------------------------|
|--------------------------------------------------------------|
|--------------------------------------------------------------|
|3-3-2-2-0-----3-----------------------------------------------|
|3-3-2-2-0---2---2-2222----------------------------------------|
|3-3-2-2-0-3-----------441133114411----------------------------|
 . . . . .

basically, that repeats with some rhythm chnges.


oh, and there's a breakdown soon after that with these chords, but i havent quite gotten 
rhythm.
|--------------------------------------------------------------|
|--------------------------------------------------------------|
|--------------------------------------------------------------|
|--------------------------------------------------------------|
|5-5-4---------------------------------------------------------|
|3-3-2---------------------------------------------------------|
 . . .

so yea.....that's just a little bit, but better than nothing (:
Tap to rate this tab
# A B C D E F G H I J K L M N O P Q R S T U V W X Y Z