Song name
# A B C D E F G H I J K L M N O P Q R S T U V W X Y Z

Imperial Vipers - Kick A Hole tab

kick a hole-imperial vipers

drop d tuning

intro/chorus (clean)
|--------------------------------------|
|--------------------------------------|
|-------------7-7-7--------------------| x3
|--4-4-4-4-4--7-7-7--7-7-7-7-7--2-2-2--|
|--4-4-4-4-4--5-5-5--7-7-7-7-7--2-2-2--|
|--4-4-4-4-4---------7-7-7-7-7--2-2-2--|

then...
|------------------------------------|
|------------------------------------|
|--4-4-4-4-4-4-4-4--7-7-7-7-7-7-7-7--|
|--4-4-4-4-4-4-4-4--7-7-7-7-7-7-7-7--|
|--2-2-2-2-2-2-2-2--5-5-5-5-5-5-5-5--|
|------------------------------------|

pre-verse (distortion)
|-------------|
|-------------| x4
|------7-7-7--|
|--4-4-7-7-7--|
|--4-4-5-5-5--|
|--4-4--------|

verse
|--------------------------------------|
|--------------------------------------|
|-------------7-x-7--------------------| x4
|--4-4-4-4-4--7-x-7--7-7-7-7-7--2-2-2--|
|--4-4-4-4-4--5-x-5--7-7-7-7-7--2-2-2--|
|--4-4-4-4-4---------7-7-7-7-7--2-2-2--|

pre-chorus
|------------------------------------|
|------------------------------------|
|--4-4-4-4-4-4-4-4--7-7-7-7-7-7-7-7--|
|--4-4-4-4-4-4-4-4--7-7-7-7-7-7-7-7--|
|--2-2-2-2-2-2-2-2--5-5-5-5-5-5-5-5--|
|------------------------------------|

  -x-play chorus-x-

  -x-play verse-x-

bridge part1
|-----------------------------------|
|-----------------------------------|
|-------------------6-6-6-----------|
|-7-7-7-7--2-2-2-2--6-6-6--4-4-4-4--|
|-7-7-7-7--2-2-2-2--4-4-4--4-4-4-4--|
|-7-7-7-7--2-2-2-2---------4-4-4-4--|
pm  . .      . .             . .

then... bridge part2
|--------------------------|
|--------------------------|
|-4\2-4--7-7-7-7-----------| x4
|-4\2-4--7-7-7-7--7-7-7-7--|
|-2\0-2--5-5-5-5--7-7-7-7--|
|-----------------7-7-7-7--|


then... bridge part 3
|---------------------------|
|---------------------------|
|---------------------------|
|-55555555-2~--00000000-----|
|-55555555-2~--00000000-----|
|-55555555-2~--00000000-----|

  -x-play verse-x-

  -x-play chorus-x-

  -x-play bridge pt1-x-

  -x-play bridge pt2-x-

  -x-play bridge pt3(without 0's)-x-

  -x-play intro-x-

  -x-play 2nd half of pre-chorus-x-

  -x-play chorus-x-

  -x-play pre-chorus-x-

  -x-play chorus loads of times-x-

  -x-play pre-chorus-x-

end on:
|------|
|------|
|------|
|--4~--|
|--4~--|
|--4~--|


...awesome band...awesome song...

www.imperialvipers.com
Tap to rate this tab
# A B C D E F G H I J K L M N O P Q R S T U V W X Y Z