Song name
# A B C D E F G H I J K L M N O P Q R S T U V W X Y Z

Impossibles - Eightball tab

INTRO: listen to the song for repition
Part 1
e|-------------------------------------------------------------------------|
B|-------------------------------------------------------------------------|
G|---------4---5-----5------3----------------------------------------------|
D|---5---- 4---5-----5------3----------------------------------------------|
A|---5-----2---3-----0------1----------------------------------------------|
E|---3---------------------------------------------------------------------|

Part 2
e|-------------------------------------------------------------------------|
B|-------------------------------------------------------------------------|
G|-------4----3------------------------------------------------------------|
D|----5--4----3----7----6--------------------------------------------------|
A|----5--2----1----7----6--------------------------------------------------|
E|----3------------5----4--------------------------------------------------|

VERSE 
e|----xxx3---xxx2----xxx3-----x-x--x-x-x-x---------------------------------|
B|----xxx3---xxx4----xxx5-----x11-11-x1010---------------------------------|
G|----xxx4---xxx4----xxx5-----x10-10-x9--9---------------------------------|
D|----xxx5---xxx4----xxx5-----x8--8--x7--7---------------------------------|
A|----xxx5---xxx2----xxx3-----xx--x--xx--x---------------------------------|
E|----xxx3---xxxx----xxxx-----xx--x--xx--x---------------------------------|  

 I hold the future in my fingertips
 my destination races across her lips
 it's no suprise it's just what it predicts                            
 my fate is sealed shut by the dice it picks

CHORUS
Part 1
e|-------------------------------------------------------------------------|
B|-------------------------------------------------------------------------|
G|---------4---5-----5------3----------------------------------------------|
D|---5---- 4---5-----5------3----------------------------------------------|
A|---5-----2---3-----0------1----------------------------------------------|
E|---3---------------------------------------------------------------------|

Part 2
e|-------------------------------------------------------------------------|
B|-------------------------------------------------------------------------|
G|-------4----3------------------------------------------------------------|
D|----5--4----3----7----6--------------------------------------------------|
A|----5--2----1----7----6--------------------------------------------------|
E|----3------------5----4--------------------------------------------------|

 so I shook my magic eightball
 and I posed an inquiry
 and my future began to surface:
 "outlook not so good", "most likelynot", "my souces say no" 

VERSE
e|----xxx3---xxx2----xxx3-----x-x-x-x-x-x----------------------------------|
B|----xxx3---xxx4----xxx5-----x1111-x1010----------------------------------|
G|----xxx4---xxx4----xxx5-----x1010-x9--9----------------------------------|
D|----xxx5---xxx4----xxx5-----x8--8--x7-7----------------------------------|
A|----xxx5---xxx2----xxx3-----xx--x--xx-x----------------------------------|
E|----xxx3---xxxx----xxxx-----xx--x--xx-x----------------------------------|  

it is without a doubt hard to figure out this magic ball
 what gives it it's mojo powers, and makes it so mystical?
 is it the faith of over a million kids who find it believable?
 or is it a bunch of four sided dice trapped in a black plastic ball?

CHORUS
Part 1
e|-------------------------------------------------------------------------|
B|-------------------------------------------------------------------------|
G|---------4---5-----5------3----------------------------------------------|
D|---5---- 4---5-----5------3----------------------------------------------|
A|---5-----2---3-----0------1----------------------------------------------|
E|---3---------------------------------------------------------------------|

Part 2
e|-------------------------------------------------------------------------|
B|-------------------------------------------------------------------------|
G|-------4----3------------------------------------------------------------|
D|----5--4----3----7----6--------------------------------------------------|
A|----5--2----1----7----6--------------------------------------------------|
E|----3------------5----4--------------------------------------------------|

BRIDGE:Only the first part...the second part is a lil diff email me if u cant 
figure it out
e|-------------------------------------------------------------------------|
B|-------------------------------------------------------------------------|
G|-------------------------------------------------------------------------|
D|----5----2----55--2--5--8752---------------------------------------------|
A|----5----2----55--2--5--8752---------------------------------------------|
E|----3----0----33--0--3--6530---------------------------------------------|

Tap to rate this tab
# A B C D E F G H I J K L M N O P Q R S T U V W X Y Z