Song name
# A B C D E F G H I J K L M N O P Q R S T U V W X Y Z

In Fear And Faith - The Taste Of Regret tab

e|-------------------------------------------------|
B|------------------------0------------------------|
G|------------1-----2-----------2-----1-----2------|
D|------4------------------------------------------|
A|-------------------------------------------------|
E|2------------------------------------------------|

e|-------------------------------------------------|
B|------------------------2-----0-----------0------|
G|------------1-----2-----------------2------------|
D|------4------------------------------------------|
A|-------------------------------------------------|
E|2------------------------------------------------|

and repeat

btw, i've removed the "base tone", if you'd like to use it, just play one snap on the 
fret on the A string between every tone.. it's pretty hard though, and it requires to be 
very fast if you want it to sound good :-D

like this:


e|-------------------------------------------------|
B|------------------------0------------------------|
G|------------1-----2-----------2-----1-----2------|
D|------4------------------------------------------|
A|---4-----4-----4-----4-----4-----4-----4-----4---|
E|2------------------------------------------------|

e|-------------------------------------------------|
B|------------------------2-----0-----------0------|
G|------------1-----2-----------------2------------|
D|------4------------------------------------------|
A|---4-----4-----4-----4-----4-----4-----4-----4---|
E|2------------------------------------------------|

www.myspace.com/infearandfaith
www.infaf.com

tabbed by egzon jashari
Tap to rate this tab
# A B C D E F G H I J K L M N O P Q R S T U V W X Y Z