Song name
# A B C D E F G H I J K L M N O P Q R S T U V W X Y Z

In Fear And Faith - Your World On Fire tab

"Your World On Fire"
In Fear and Faith

I have most of it figured out, just posting this for now though...


Drop D

. = Palm Mute
/ = slide up
\ = slide down
h = hammer on
x = repeat the note the specified amount of times

Lead Intro x 2
E|----------------------------------------------------------------------------|
B|----------------------------------------------------------------------------|
G|---12/14-14-----------------------------------------------------------------|
D|------------14-14-14-15-15-15---------------14-14---------------------------|
A|-----------------------------15h17-17-17-17-------13-13-13-12-12-12---------|
D|-------------------------------------------------------------------14-14-14-|

Cont.
|-----------------------------------------------------------------------------|
|-----------------------------------------------------------------------------|
|-----------------------------------------------------------------------------|
|-----------------------------------------------------------------------------|
|-----------------------------------------------------------------------------|
|15-15-15-15-15-15-15---------------------------------------------------------|


3rd Time:
E|----------------------------------------------------------------------------|
B|----------------------------------------------------------------------------|
G|---12/14-14-14-14-14-14-----------------------------------------------------|
D|------------------------15-15-15-17-17-17-17-17-17-14-14-14-14-14-14--------|
A|--------------------------------------------------------------------12-12-12|
D|----------------------------------------------------------------------------|

Cont.
|-----------------------------------------------------------------------------|
|-----------------------------------------------------------------------------|
|---------14-------14---------12/14-14-14-14-14-14----------------------------|
|--------------------------------------------------15-15-15-17-17-17-17-17-17-|
|---12-12----12-12----12------------------------------------------------------|
|-----------------------------------------------------------------------------|

Bridge:

Rhythm x 4
|-----------------------------------------------------------------------------|
|-----------------------------------------------------------------------------|
|-----------------------------------------------------------------------------|
|--0000-0~---00-0~--00-0~--00-0~--00-0~---8888-8~--88-8~--88-8~--88-8~--88-8~-|
|--0000-0~---00-0~--00-0~--00-0~--00-0~---8888-8~--88-8~--88-8~--88-8~--88-8~-|
|--0000-0~---00-0~--00-0~--00-0~--00-0~---8888-8~--88-8~--88-8~--88-8~--88-8~-|
   ....      ..     ..     ..     ..      ....     ..     ..     ..     ..
Chorus:

Rhythm
|-----------------------------------------------------------------------------|
|-----------------------------------------------------------------------------|
|-----------------------------------------------------------------------------|
|---12x16--10x16--8x16--7x8----0x8--------------------------------------------|
|---12x16--10x16--8x16--7x8----0x8--------------------------------------------|
|---12x16--10x16--8x16--7x8----0x8--------------------------------------------|
                               .
Verse:

Rhythm x 2
|---------------------------------------------------------------------------|
|---------------------------------------------------------------------------|
|-14\--------------------------12\------------------------------------------|
|-----000--0-0--0--0-000-000-------000--0-0--0--0-000-000-------------------|
|-12\-000--0-0--0--0-000-000---10\-000--0-0--0--0-000-000-------------------|
|-----000--0-0--0--0-000-000-------000--0-0--0--0-000-000-------------------|
      ...  . .  .  . ... ...       ...  . .  .  . ... ...
|---------------------------------------------------------------------------|
|---------------------------------------------------------------------------|
|-14\------------------------------12\--------------------------------------|
|-----000--0-0--0--15-14---------------000--0-0--8~---0-10~-----------------|
|-12\-000--0-0--0--------15-12-----10\-000--0-0--8~---0-10~-----------------|
|-----000--0-0--0--------------12------000--0-0--8~---0-10~-----------------|
      ...  . .  .                      ...  . .       .
Tap to rate this tab
# A B C D E F G H I J K L M N O P Q R S T U V W X Y Z