Song name
# A B C D E F G H I J K L M N O P Q R S T U V W X Y Z

In Flames - Im The Highway tab

This is my first tab and I've only figured out the intro for the moment but I'll try to 
as I go along.
I think I have it out alright for the 2 guitars, and it's probably not the most 
way to play it but it works for me :p

Tuning: Drop A#

Intro

Guitar 1
|------------------------------------------------------------------------|
|------------------------------------------------------------------------|
|--10-----10-----10---0-0-7-0-7h9p7--7-----7------7--------5---5h7p5-----|
|-----8-8----8-8----8------------------0-0----0-0---0--------------------|
|------------------------------------------------------7-7---7-----------|
|------------------------------------------------------------------------|
pm____.._____._.____._..____.__________. .____._.___.__._.___.


|------------------------------------------------------------------------|
|------------------------------------------------------------------------|
|--10-----10-----10---0-0-7-0-7h9p7--10-10-7-7---------------------------|
|-----8-8----8-8----8--------------------------7-7-5-5-----5-5-7-7-10-10-|
|------------------------------------------------------8-8---------------|
|------------------------------------------------------------------------|
pm____.._____._.____._..____.


Guitar 2
|------------------------------------------------------------------------|
|---10----10-----10------6---6h8p6----6-----6------6---------5----5h6p5--|
|---------------------0-0---0--------------------------------------------|
|-----8-8----8-8----8-------------------0-0----0-0---0-------------------|
|--------------------------------------------------------7-7----7--------|
|------------------------------------------------------------------------|
pm____.._____._.____._..____.___________. .____._.___.___._.____.

|------------------------------------------------------------------------|
|---10----10-----10------6---6h8p6---------------------------------------|
|---------------------0-0---0--------------------------------------------|
|-----8-8----8-8----8----------------------------------------------------|
|------------------------------------------------------------------------|
|------------------------------------------------------------------------|
pm____.._____._.____._..____.

I know there's some harmony at the end of that part there but I'll get to it eventually 
hope.
Hope it sounds alright for ye

Tabbed by CowPuncher
Tap to rate this tab
# A B C D E F G H I J K L M N O P Q R S T U V W X Y Z