Song name
# A B C D E F G H I J K L M N O P Q R S T U V W X Y Z

In Flames - Disconnected tab

Help us improve GuitareTab! Take a short survey!
Tunning Standar E.

  P.M---------------------------------------------------|
e|------------------------------------------------------|
B|------------------------------------------------------|
G|------------------------------------------------------|
D|---------------------------------------------4-3-1----|
A|---1-----4-----1-----4-----1-----2-----1-----------4--|
E|-0---2-2---0-0---2-2---0-0---2-2---0-0---2------------|

------------------------------------------------------|
------------------------------------------------------|
------------------------------------------------------|
-----------------------------------------------1-3----|
---1-----4-----1-----4-----1-----4-----1---1-3--------|
-0---2-2---0-0---2-2---0-0---2-2---0-0---2------------|


-----------------------------------------------------|
-----------------------------------------------------|
-----------------------------------------------------|
---------------------------------------------4-3-1---|
---1-----4-----1-----4-----1-----4-----1-----------4-|
-0---2-2---0-0---2-2---0-0---2-2---0-0---2-----------|


------------------------------------------------------|
------------------------------------------------------|
------------------------------------------------------|
----------------------------------------------1-3-----|
---1-----4-----1-----4-----1-----4----1---1-3---------|
-0---2-2---0-0---2-2---0-0---2-2---0-0--2-------------|

P.M-|
---------------------|
---------------------|
-------------------1-|
---------1-3-3-1-1---|
-1-1-1-3-------------|
---------------------|

P.M-|
-------------------------------------------------------------------|
-------------------------------------------------------------------|
-------------------------------------------------------------------|          4 Times
-------------------------------------------------------------------|
-----1-1-1------4-1-1-1------4-1-1-1------4-1-1-1--------4-3---4-3-|
-1-1-------2--1---------2--1---------2--1---------4--4-4-----4-----|
       Look at the dead outside my window....


Lead Melody
-----------------------------------------------|
-9----------------------------9----------------|
---6-6\5-6/5-6------------------6-6\5-5/6/8\6--|           2 Times
---------------8--6-8-6------------------------|
-----------------------------------------------|
-----------------------------------------------|
               *********       +++++++++++++++
                You receive what you give....


Rytm
------------------------------------------------------------------|
------------------------------------------------------------------|
------------------------------------------------------------------|            2 Times
-----------------3-3-3--------3-3-3-------4-4-4-------------------|
-----------------1-1-1-4-4-4--1-1-1-6-6-6-2-2-2-------------------|
-----------------------2-2-2--------4-4-4-------------------------|
                ************   ++++++++++++++++

Lead Melody
-------------------------------------------------------------------|
-------------------------------------------------------------------|
-------------------------------------------3-----------------------|        2 Times
---3-3-3---4-3-6-----3-3-3---4-3-6---3-4-6-------------------------|
-1---------------4--1--------------4-------------------------------|
-------------------------------------------------------------------|
 ******** +++++++   *******  +++++++++++++++

Rytm
-------------------------------------------------------------------|
-------------------------------------------------------------------|
-------------------------------------------------------------------|         2 Times
-3-3-3-3-----------3-3-3-3---3-3-3-3-------------------------------|
-1-1-1-1--6-6-6-6--1-1-1-1---1-1-1-1-4-4-4-4-----------------------|
----------4-4-4-4--------------------2-2-2-2-----------------------|
 ******** +++++++  ********  +++++++++++++++

Lead Melody
----------------------------------------------|
--9-------9-------9-------9-------------------|
----------------------------------------------|
----10-10---10-10---10-10---10-10-10-10-10-10-|
----------------------------------------------|
----------------------------------------------|
  ********************************************
  all you meant to be?........................

-------------------------------------------12-12-14---|
-14-------14-------14-------12-14-14-15-15---------15-|
------------------------------------------------------|
----15-15----15-15----15-15---------------------------|
------------------------------------------------------|
------------------------------------------------------|
++++++++++++++++++++++++++++++++++++++++++++++++++++++

Rytm
------------------------------------------------------------------------|
------------------------------------------------------------------------|
------------------------------------------------------------------------|
--4-4-4-4-4-4-4-4-4-4-4-4-4-4-4-4-------6-6-6-6-6-6-6-6-6-6-6-6-6-6-6-6-|
--2-2-2-2-2-2-2-2-2-2-2-2-2-2-2-2-------4-4-4-4-4-4-4-4-4-4-4-4-4-4-4-4-|
------------------------------------------------------------------------|
 ********************************       +++++++++++++++++++++++++++++++


P.M-|
-------------------------------------------------------------------|
-------------------------------------------------------------------|
-------------------------------------------------------------------|          4 Times
-------------------------------------------------------------------|
-----1-1-1------4-1-1-1------4-1-1-1------4-1-1-1--------4-3---4-3-|
-1-1-------2--1---------2--1---------2--1---------4--4-4-----4-----|
      There are marks in the pavement....


Lead Melody
-----------------------------------------------|
-9----------------------------9----------------|
---6-6\5-6/5-6------------------6-6\5-5/6/8\6--|           2 Times
---------------8--6-8-6------------------------|
-----------------------------------------------|
-----------------------------------------------|
               *********      +++++++++++++++
               You receive what you give....


Rytm
------------------------------------------------------------------|
------------------------------------------------------------------|
------------------------------------------------------------------|            2 Times
-----------------3-3-3--------3-3-3-------4-4-4-------------------|
-----------------1-1-1-4-4-4--1-1-1-6-6-6-2-2-2-------------------|
-----------------------2-2-2--------4-4-4-------------------------|
                 ************ ++++++++++++++++


Lead Melody
-------------------------------------------------------------------|
-------------------------------------------------------------------|
-------------------------------------------3-----------------------|        2 Times
---3-3-3---4-3-6-----3-3-3---4-3-6---3-4-6-------------------------|
-1---------------4--1--------------4-------------------------------|
-------------------------------------------------------------------|
 ******** +++++++   *******  +++++++++++++++

Rytm
-------------------------------------------------------------------|
-------------------------------------------------------------------|
-------------------------------------------------------------------|         2 Times
-3-3-3-3-----------3-3-3-3---3-3-3-3-------------------------------|
-1-1-1-1--6-6-6-6--1-1-1-1---1-1-1-1-4-4-4-4-----------------------|
----------4-4-4-4--------------------2-2-2-2-----------------------|
 ******** +++++++   ********  +++++++++++++++

Lead Melody
----------------------------------------------|
--9-------9-------9-------9-------------------|
----------------------------------------------|
----10-10---10-10---10-10---10-10-10-10-10-10-|
----------------------------------------------|
----------------------------------------------|
  ********************************************
  all you have to give?.......................
  |||Straight jacket union...|||
  |||In chains - surrender...|||


-------------------------------------------12-12-14---|
-14-------14-------14-------12-14-14-15-15---------15-|
------------------------------------------------------|
----15-15----15-15----15-15---------------------------|
------------------------------------------------------|
------------------------------------------------------|
++++++++++++++++++++++++++++++++++++++++++++++++++++++

Rytm
------------------------------------------------------------------------|
------------------------------------------------------------------------|
------------------------------------------------------------------------|
--4-4-4-4-4-4-4-4-4-4-4-4-4-4-4-4-------6-6-6-6-6-6-6-6-6-6-6-6-6-6-6-6-|
--2-2-2-2-2-2-2-2-2-2-2-2-2-2-2-2-------4-4-4-4-4-4-4-4-4-4-4-4-4-4-4-4-|
------------------------------------------------------------------------|
  ***********************************   ++++++++++++++++++++++++++++++++

Lead Melody
---------------------------------------------------------|
---------------------------------------------------------|
---------------------------------------------------------|
---------------------------------------------------------|
--3-3--1-1-4-3----3-3--1-1-4-3--3-3-4--------------------|
-1------------4--1------------4--------------------------|
 ***** ++++++++  ****   ++++++++
          So...                 March...        |||Straight jacket union...|||
                                                |||In chains - surrender...|||


Rytm
-------------------------------------------------------------------|
-------------------------------------------------------------------|
-------------------------------------------------------------------|
-3-3-3--3-3-3-3--3-3-3--3-3-3-3------------------------------------|
-1-1-1--1-1-1-1--1-1-1--1-1-1-1------------------------------------|
 ****** +++++++  ****** +++++++


---------------------------------------------------|
---------------------------------------------------|
---------------------------------------------------|
-----------------------------------------------1-3-|
---1-----4-----1-----4-----1-----4-----1---1-3-----|
-0---2-2---0-0---2-2---0-0---2-2---0-0---2---------|


---------------------------------------------------|
---------------------------------------------------|
---------------------------------------------------|
------------------------------------------4-3-1----|
---1-----1-----1-----4-----1-----4----1---------4--|
-0---2-2---0-0---2-2---0-0---2-2---0-0--2----------|


Lead Melody
----------------------------------------------|
----11----------------------------------------|
-------8-7-8-7------------------12-7----------|
---------------10-8-10------------------------|
-----------------------10-1-1---10-5----------|
----------------------------------------------|
    *************************** +++++

Clean Rytm                     Distoriton Rytm
---------------------------------------------|
---------------------------------------------|
------3--------5--------3--------------------|
----3---3----5---5----3---3-----5------------|
--1--------3--------1-----------3-5----------|
----------------------------------3----------|
  ****************************  +++++


Lead Melody
-----------------------------------------------|
-9----------------------------9----------------|
---6-6\5-6/5-6------------------6-6\5-5/6/8\6--|           2 Times
---------------8--6-8-6------------------------|
-----------------------------------------------|
-----------------------------------------------|
               *********      +++++++++++++++
               You receive what you give....


Rytm
------------------------------------------------------------------|
------------------------------------------------------------------|
------------------------------------------------------------------|            2 Times
-----------------3-3-3--------3-3-3-------4-4-4-------------------|
-----------------1-1-1-4-4-4--1-1-1-6-6-6-2-2-2-------------------|
-----------------------2-2-2--------4-4-4-------------------------|
                 ************ ++++++++++++++++

P.M-|
--------------------------------------------------------------------------|
--------------------------------------------------------------------------|
--------------------------------------------------------------------------|
--------------------------------------------------------------------3-3---|
-----1-1-1------4-1-1-1------4-1-1-1------4-1-1-1--------4-3---4-3--1-1---|
-1-1-------2--1---------2--1---------2--1---------4--4-4-----4------------|

The End

It's not completely correct but it's definitely playable.I tabbed what i heard.hope you 
enjoy :)
Related for Disconnected tab