Guitaretab - guitar tabs
Song name
# A B C D E F G H I J K L M N O P Q R S T U V W X Y Z

In Flames - Vacuum tab

TUNING: DROP A#

KEY:
. Palm Mute
h Hammer On
p Pull Off
/ Slide

INTRO
|-----------------------------------------------------------------|
|-----------------------------------------------------------------|
|-------------------------------------------------------------3-2-|
|-----3-7-6-----2-5-------------------3-7-6-----2-5---------------|
|-------------------------0-1-0-1-------------------------0-1-----|
|-0-0-------0-0-----0-0-0-0-1-0-1-0-0-------0-0-----0-0-0---------|
  . .       . .     . . .         . .       . .     . . . . .

|-----------------------------------------------------------------|
|-----------------------------------------------------------------|
|-----------------------------------------------------------------|
|-----3-7-6-----2-5-------------------3-7-6-----2-5---------------|
|-------------------------0-1-0-1-------------------------0-1-0*5-|
|-0-0-------0-0-----0-0-0-0-1-0-1-0-0-------0-0-----0-0-0---------|
  . .       . .     . . .         . .       . .     . . . . . .

VERSE
|-----------------------------------------------------------------|
|-----------------------------------------------------------------|
|-------------------------------------------------------------3-2-|
|-----3-7-6-----2-5-------------------3-7-6-----2-5---------------|
|-------------------------0-1-0-1-------------------------0-1-----|
|-0-0-------0-0-----0-0-0-0-1-0-1-0-0-------0-0-----0-0-0---------|
  . .       . .     . . .         . .       . .     . . . . .

|-----------------------------------------------------------------|
|-----------------------------------------------------------------|
|-----------------------------------------------------------------|
|-----3-7-6-----2-5-------------------3-7-6-----2-5---------------|
|-------------------------0-1-0-1-----------------------------1-0-|
|-0-0-------0-0-----0-0-0-0-1-0-1-0-0-------0-0-----0-0-0-0-0-----|
  . .       . .     . . .         . .       . .     . . . . .

PRE-CHORUS.. Kind of
|-----------------------------------------------------------------|
|-----------------------------------------------------------------|
|-----------------------------------------------------------------|
|-----------------------------------------------------------------|
|-5-----5-7---8-------5---7---8---5-----5-7---8-------5---7---8---|
|---0-0-----0---0-0-0---0---0---0---8-8-----8---8-8-8---8---8---8-|
    . .     .   . . .   .   .   .   . .     .   . . .   .   .   .

|-----------------------------------------------------------------|
|-----------------------------------------------------------------|
|-----------------------------------------------------------------|
|-----------------------------------------------------------------|
|-5-----5-7---8-------5---7---8---7-----7-8--10------7---8---10---|
|---7-7-----7---7-7-7---7---7---7--1010----10--101010--10--10--10-|
    . .     .   . . .   .   .   .  . .     .   . . .   .   .   .

[VERSE]

PRE-CHORUS
|-----------------------------------------------------------------|
|-----------------------------------------------------------------|
|-----------------------------------------------------------------|
|-----------------------------------------------------------------|
|-5-----5-7---8-------5---7---8---5-----5-7---8-------5---7---8---|
|---0-0-----0---0-0-0---0---0---0---8-8-----8---8-8-8---8---8---8-|
    . .     .   . . .   .   .   .   . .     .   . . .   .   .   .

|-----------------------------------------------------------------|
|-----------------------------------------------------------------|
|-----------------------------------------------------------------|
|-----------------------------------------------------------------|
|-5-----5-7---8-------5---7---8---7-----7-8--10------7---8---10---|
|---7-7-----7---7-7-7---7---7---7--1010----10--101010--10--10--10-|
    . .     .   . . .   .   .   .  . .     .   . . .   .   .   .

|-----------------------------------------------------------------|
|-----------------------------------------------------------------|
|-----------------------------------------------------------------|
|-----------------------------------------------------------------|
|-5-----5-7---8-------5---7---8---5-----5-7---8-------5---7---8---|
|---0-0-----0---0-0-0---0---0---0---8-8-----8---8-8-8---8---8---8-|
|   . .     .   . . .   .   .   .   . .     .   . . .   .   .   . |
|-----------------------------------------------------------------|
|-----------------------------------------------------------------|
|-----------------------------------------------------------------|
|-----------------------------------------------------------------|
|-8-----810--12-------8--10--12---8-----810--12-------8--10--12---|
|---0-0-----0---0-0-0---0---0---0---8-8-----8---8-8-8---8---8---8-|
    . .     .   . . .   .   .   .   . .     .   . . .   .   .   .

|-----------------------------------------------------------------|
|-----------------------------------------------------------------|
|-----------------------------------------------------------------|
|-----------------------------------------------------------------|
|-5-----5-7---8-------5---7---8---7-----7-8--10------7---8---10---|
|---7-7-----7---7-7-7---7---7---7--1010----10--101010--10--10--10-|
|   . .     .   . . .   .   .   .  . .     .   . . .   .   .   .  |
|-----------------------------------------------------------------|
|-----------------------------------------------------------------|
|-----------------------------------------------------------------|
|-----------------------------------------------------------------|
|-8-----810--12-------8--10--12--10----1013--12------10--13--12---|
|---7-7-----7---7-7-7---7---7---7--1010----10--101010--10--10--10-|
    . .     .   . . .   .   .   .  . .     .   . . .   .   .   .

FILL
|-----------------------------------------------------------------|
|-----------------------------------------------------------------|
|-9h10----9h10----9h10------------9h10----9h10--------------------|
|-----0-0-----0-0-----0-0-------------0-0-----0-0---8-------------|
|-------------------------8-8-8-8-----------------8-8-------------|
|-------------------------8-8-8-8-----------------8-8-------------|
      . .     . .     . .             . .     . . .

CHORUS
Bjorn X4
|-----------------------------------------------------------------|
|-----------------------------------------------------------------|
|-2-2-2-2-2-2-2-2-------------------------------------------------|
|-0-0-0-0-0-0-0-0-2-2-2-2-2-2-2-2-3-3-3-3-3-3-3-3-5-5-5-5-5-5-5-5-|
|-----------------0-0-0-0-0-0-0-0-1-1-1-1-1-1-1-1-3-3-3-3-3-3-3-3-|
|-----------------------------------------------------------------|

Jesper X2
|---------------------------------------------------------------------|
|-----------------/15-13-15-13----------------------------------------|
|-----14-14-12-10--------------15-14-10-/14-12-10-12-10-12-14-12-10-9-|
|-/12-----------------------------------------------------------------|
|---------------------------------------------------------------------|
|---------------------------------------------------------------------|

|--------------------------|
|--------------------------|
|-----------------3--2-----|
|-/12-------------3--2--3--|
|-----------------1--0--3--|
|-----------------------3--|
|                          |
|--------------------------|
|--------------------------|
|-----------------3--2-----|
|-----------------3--2--3--|
|-0-0-0-0-0-0-0-0-1--0--3--|
|-0-0-0-0-0-0-0-0-------3--|
  . . . . . . . .
[ Tab from: http://www.guitaretab.com/i/in-flames/183453.html ]
INTERLUDE X2
|-----------------------------------------------------------|
|-----------------------------------------------------------|
|-----------------------------------------------------------|
|---------3--3----------5--5----------3--3------------------|
|-0-0-0-0-0--0--0-0-0-0-0--0--0-0-0-0-0--0--0-0-0-0-0-0-0-0-|
|-0-0-0-0-0--0--0-0-0-0-0--0--0-0-0-0-0--0--0-0-0-0-0-0-0-0-|
| . . . .       . . . .       . . . .       . . . . . . . . |
|-----------------------------------------------------------|
|-----------------------------------------------------------|
|-----------------------------------------------------------|
|---------7--7----------8--8----------7--7------------------|
|-0-0-0-0-0--0--0-0-0-0-0--0--0-0-0-0-0--0--0-0-0-0-0-0-0-0-|
|-0-0-0-0-0--0--0-0-0-0-0--0--0-0-0-0-0--0--0-0-0-0-0-0-0-0-|
  . . . .       . . . .       . . . .       . . . . . . . .

[VERSE]

[PRE-CHORUS]

[CHORUS]

BRIDGE
|-----------------------------------------------------------------|
|---------------------------------------------------------6-5-----|
|-7-7---5---7-----7-7---5---7-----7-7---5---7---7---7-5-------7-5-|
|-----0---0---0-0-----0---0---0-0-----0---0---0---0-----0---------|
|-----------------------------------------------------------------|
|-----------------------------------------------------------------|
      .   .   . .     .   .   . .     .   .   .   .     .

X2
|-----------------------------------------------------------------|
|---------------------------------------------------------6-5-----|
|-7-7---5---7-----7-7---5---7-----7-7---5---7---7---7-5-------7-5-|
|-----0---0---0-0-----0---0---0-0-----0---0---0---0-----0---------|
|-----------------------------------------------------------------|
|-----------------------------------------------------------------|
|     .   .   . .     .   .   . .     .   .   .   .     .         |
|-----------------------------------------------------------------|
|--------------------------------------------------------10-8-----|
|-1010--9---10----1010--9---10----1010--9---10--10--10-9-----10-9-|
|-----0---0---0-0-----0---0---0-0-----0---0---0---0-----0---------|
|-----------------------------------------------------------------|
|-----------------------------------------------------------------|
      .   .   . .     .   .   . .     .   .   .   .     .

|---------------------------------|
|---------------------------------|
|-7-5-----7-5-----7-5-----7-5-----|
|-----8-7-----8-7-----8-7-----8-7-|
|---------------------------------|
|---------------------------------|
| ............................... |
|---------------------------------|
|---------------------------------|
|-10-9----10-9----10-9----10-9----|
|-----1210----1210----1210----1210|
|---------------------------------|
|---------------------------------|
  ...............................

Bjorn
|-----------------------------------------------|
|-----------------------------------------------|
|---101010-1010-10101010---101010-1010-10101010-|
|---101010-1010-10101010---101010-1010-10101010-|
|---8-8-8--8-8--8-8-8-8----8-8-8--8-8--8-8-8-8--|
|-----------------------------------------------|

|-----------------------------------------------|
|-----------------------------------------------|
|---101010-1010-10101010---101010-1010-10//////-|
|---101010-1010-10101010---101010-1010-10//////-|
|---8-8-8--8-8--8-8-8-8----8-8-8--8-8--8-//////-|
|-----------------------------------------------|

|-----------------------------------------------------------------|
|-----------------------------------------------------------------|
|-----------------------------------------------------------------|
|-----------------------------------------------------------------|
|-3-3-3-3-3-3-3-3-3-3-3-3-3-3-3-3-3-3-3-3-3-3-3-3-3-3-3-3-3-3-3-3-|
|-3-3-3-3-3-3-3-3-3-3-3-3-3-3-3-3-3-3-3-3-3-3-3-3-3-3-3-3-3-3-3-3-|
  ...............................................................

|---------------------------------------------------------|
|---------------------------------------------------------|
|---------------3------5--------------------3------5------|
|-5------3------3------5------5------3------3------5------|
|-5------3------1------3------5------3------1------3------|
|-5------3--------------------5------3--------------------|

Jesper
|-------------------------------------------------|
|----------------------------------------------13-|
|-10----12-13-12----13-15-10----13----10-13-12----|
|----10----------10----------10----10-------------|
|-------------------------------------------------|
|-------------------------------------------------|
     .           .           .     .

|-------------------------------------------------|
|-------------------------------------------------|
|-10----12-13-12----13-15-10----13----13-12-10----|
|----10----------10----------10----10----------13-|
|-------------------------------------------------|
|-------------------------------------------------|
     .           .           .     .

|-------------------------------------------------|
|-------------------------------------------------|
|----------------------------------------------14-|
|-13----13-16-15----13-16-13----16----13-15-16----|
|----13----------13----------13----13-------------|
|-------------------------------------------------|
     .           .           .     .

|-------------------------------------------------|
|-------------------------------------------------|
|-------------------------------------------------|
|-13----13-16-15----13-16-13----16----16-15-13----|
|----13----------13----------13----13----------16-|
|-------------------------------------------------|
     .           .           .     .

[INTERLUDE]

[CHORUS]

EXIT
|------------------------------------------------------------------|
|------------------------------------------------------------------|
|------------------------------------------------------------------|
|-----3-7-6-----2-5-------------------3-7-6-----2-5----------------|
|-----------------------5-8-----8-------------------------0-1-0-*5-|
|-0-0-------0-0-----0-0-----0-8---0-0-------0-0-----0-0-0----------|
  . .       . .     . .     . .   . .       . .     . . . . . .

|------------------------------------------------------------------|
|------------------------------------------------------------------|
|-------------------------------------------------3333222277775555-|
|-----3-7-6-----2-5-------------------3-7-6------------------------|
|-----------------------5-8-----8----------------------------------|
|-0-0-------0-0-----0-0-----0-8---0-0-------0-0-0------------------|
| . .       . .     . .     . .   . .       . . .                  |
|------------------------------------------------------------------|
|------------------------------------------------------------------|
|------------------------------------------------------------------|
|-----3-7-6-----2-5-------------------3-7-6-------5555333388887777-|
|-----------------------5-8-----8----------------------------------|
|-0-0-------0-0-----0-0-----0-8---0-0-------0-0-0------------------|
  . .       . .     . .     . .   . .       . . .

|------------------------------------------------------------------|
|------------------------------------------------------------------|
|------------------------------------------------------------------|
|-0----------------------------------------------------------------|
|-0----------------------------------------------------------------|
|-0----------------------------------------------------------------|


Related for Vacuum tab
Advertisement will be closed in 10 seconds