Guitaretab - guitar tabs
Song name
# A B C D E F G H I J K L M N O P Q R S T U V W X Y Z

In Flames - Come Clarity tab


E--------------------------------------------------------------------|
A--------------------------------------------------------------------|
D---8--10h11-7--10h11-6-------------8-6------------------------------|
G----------------------5-6-5h6p5-------------------------------------|
B--------------------------------------------------------------------|
E--------------------------------------------------------------------|


E---------------------------------------------------------------------|
A---------------------------------------------------------------------|
D---------------------------------------------------------------------|
G-----------15----------13----------13--------------------------------|
B---14p13h14----14p13h14----14p13h14----14p13h14-14b16r14-13h14-------|
E--------------------------------------------------------------14-16--|v

[ Tab from: http://www.guitaretab.com/i/in-flames/187449.html ]
E---------------------------------------------------------------------|
A---------------------------------------------------------------------|
D---------------------------------------------------------------------|
G-------------------------------------13-----------13-----------13----|
B-------------16-14-16b18r16-14-13h14-----14p13h14-----14p13h14-------|
E---18v-16-13---------------------------------------------------------|


E---------------------------------------------------------------------|
A---------------------------------------------------------------------|
D---/8-10-11-10-6-6--11p10-8--11p10-8---------------------------------|
G---------------------------------------------------------------------|
B---------------------------------------------------------------------|
E---------------------------------------------------------------------|
Related for Come Clarity tab
×
Come Clarity