Guitaretab - guitar tabs
Song name
# A B C D E F G H I J K L M N O P Q R S T U V W X Y Z

In Flames - Coerced Coexistence tab

Band: In Flames
Song: Coerced Coexistence (Solos)
Album: Colony
Tabbed by: Gary Bryan (garybryan at gmail.com)
Tuning: C Standard (C F Bb Eb G C)

My interpretation of the solos from Coerced Coexistence... I'm sure it's not
perfectly accurate, but it's closer and more complete than any of the others I
could find.

First solo (at about 2:26, after "Pretend, Betray!"):

|-17b19-17-15--15b17-12-14-15-14-------------------------------------------|
|--------------------------------15b17~------15----13--12--------------15~-|
|-----------------------------------------12----12---------12-14-12-11-----|
|--------------------------------------------------------------------------|
|--------------------------------------------------------------------------|
|--------------------------------------------------------------------------|

|-15--15--15--15--15--15--15--15--15--15--15--15--15--15--17-19-|
|-18b-18b-18b-18b-18b-18b-18b-18b-18b-18b-18b-18b-18b-18b-------|
|---------------------------------------------------------------|
|---------------------------------------------------------------|
|---------------------------------------------------------------|
|---------------------------------------------------------------|

|-17h19p17--------------------------15h19p15------15h19s22~-|
|----------20p19h20p19-20b22~-----17--------17--17----------|
|-------------------------------16------------16------------|
|-----------------------------------------------------------|
|-----------------------------------------------------------|
|-----------------------------------------------------------|

Then the other guitar plays this twice (2:38):

|--------------------------------------------------------|
|-----15-15b-13-11h13p11----11---------------------------|
|-12---------------------14----14-12--10h12h14p12p10h12~-|
|--------------------------------------------------------|
|--------------------------------------------------------|
|--------------------------------------------------------|

|--------------------------------------------------------|
|-----15-15b-13-11h13p11----11---------------------------|
|-12---------------------14----14-10~--------------------|
|--------------------------------------------------------|
|--------------------------------------------------------|
|--------------------------------------------------------|

Then the next solo comes in (2:49):
[ Tab from: http://www.guitaretab.com/i/in-flames/209011.html ]
|-------------------17-17b19~--17p15p14-17b19~--20b22~-|
|----------15h17h19------------------------------------|
|-14h16h17---------------------------------------------|
|------------------------------------------------------|
|------------------------------------------------------|
|------------------------------------------------------|

|-17~-15p13-15p14b16~--------------------------------------------|
|---------------------17---17------------------------------------|
|------------------------16---14---------------------------------|
|--------------------------------14~--17-14----14----------------|
|-------------------------------------------14-------------------|
|-------------------------------------------------17p15p14h15h17-|

|-------------------------------|
|-------------------------------|
|-------------------------------|
|-------------------16p14p12h14-|
|----------14h15h17-------------|
|-14h15h17----------------------|
(or something like that... fast C minor legato stuff on the low strings)

|-------15----------------17----------------17-19-19b20-15~-----20b22~-|
|-----17--17------------17--17------------17----------------17---------|
|---16------16--------16------16--------16--------------------16-------|
|-14----------17p14h17----------17p14h17-------------------------------|
|----------------------------------------------------------------------|
|----------------------------------------------------------------------|

Guess what comes next? That's right, another solo! (3:02)

|--------12----12---------12-------------------------|
|-15~~~-----15---15-12-------15-12----12-------14h16-|
|----------------------14----------14----14-12-------|
|----------------------------------------------------|
|----------------------------------------------------|
|----------------------------------------------------|

|-/15-14b15-14-12-------------15--------------------------------|
|-----------------15-12b13-12----15b17-12-----------------------|
|-----------------------------------------14-12-14-14b16-14b16~-|
|---------------------------------------------------------------|
|---------------------------------------------------------------|
|---------------------------------------------------------------|

Then...
|--------------24------------------18-----|
|-----19-----20--20-------19-----20--18---|
|---19-----21------21---19-----21------21-|
|-19-----21-----------19-----21-----------|
|-----------------------------------------|
|-----------------------------------------|
etc.... I'm not even going to try to tab out (or play!) this part, some crazy
sweeps and weird notes going on judging by what I hear, was probably
improvised in the studio...

(3:11):
|------------------------------------------19p15----22b24~-|
|---------------------------------20p17----------17--------|
|--------------------19p16----15--------19-----------------|
|-17~-17-17p14----17-------15------------------------------|
|--------------15------------------------------------------|
|----------------------------------------------------------|

Done.
Related for Coerced Coexistence tab
×
Best way to learn
"Coerced Coexistence"