Song name
# A B C D E F G H I J K L M N O P Q R S T U V W X Y Z

In Flames - Episode 666 tab

INTRO/VERSE RIFF:
RHYTHM:
C-------------------------------------------------------
G-------------------------------------------------------
E-------------------------------------------------------
B-------4---2---5-----5---4---7-----7---5---5-5-5-7-7-7-
F-2-----2---3---7-----7---7---5-----5---5---3-3-3-5-5-5-
C-0-0-0---0---0---0-0---0---0---0-0---0---0-------------
    * *   *   *   * *   *   *   * *   *   *

LEAD:
C--------------------------------------------------------------
G--------------------------------------------------------------
E-------------------------------------------5-4h5p5--4---------
B-------4---2---5-----5---4---7-----7---5-----------7--7-5-4---
F-2-----2---3---7-----7---7---5-----5---5--------------------5~
C-0-0-0---0---0---0-0---0---0---0-0---0---0--------------------
    * *   *   *   * *   *   *   * *   *   *

CHORUS:
C-----------------------------------------
G-----------------------------------------
E-----------------------------------------
B-5-5-7-9----7-9-10-9-7-5-5-7-4-3-2-------
F-3-3-5-7-10------------3-3-5-2-----5-3-2-
C-----------------------------------------

C-----------------------------------------
G-----------------------------------------
E-----------------------------------------
B-5-5-7-9----7-9-10-9-7-5-5-7-4-4---------
F-3-3-5-7-10------------3-3-5-2-2---------
C-----------------------------------------

I'm in the process of figuring out the lil 
melody they do...wicked harmony...I'm pretty
sure this is close to what they play...sounds
it...OH and ~ means vibrato and * means palm
mute...which I assume you all know...





Tap to rate this tab
# A B C D E F G H I J K L M N O P Q R S T U V W X Y Z