Song name
# A B C D E F G H I J K L M N O P Q R S T U V W X Y Z

In Flames - The Quiet Place tab

In Flames - The Quiet Place

Tabbed By: Javier Lopez (the_black_dahlia_s_murder@hotmail.com)

12/04/2007



   INTRO
|--------------13-13-13-13-----------------------------|
|-11-11-11-11--------------14-14-14--11-11-11-11-------|
|-------------------------------------------------11---|
|------------------------------------------------------|
|------------------------------------------------------|
|------------------------------------------------------|

|-14-14-14-14-------------------14-13------22-22-22-22----|
|-------------14-14-14-14-14-14---------------------------|
|---------------------------------------------------------|
|---------------------------------------------------------|
|---------------------------------------------------------|
|---------------------------------------------------------|

|-13-13-13-13--------------14--------13-----14----14-----13----13----|
|--------------14-14-14-14--------11----11-----14----14-----11----11-|
|--------------------------------------------------------------------|
|--------------------------------------------------------------------|
|--------------------------------------------------------------------|
|--------------------------------------------------------------------|
                                 <----------------------------------->
                                 <-------I'm not sure of this-------->
Tap to rate this tab
# A B C D E F G H I J K L M N O P Q R S T U V W X Y Z