Guitaretab - guitar tabs
Song name
# A B C D E F G H I J K L M N O P Q R S T U V W X Y Z

In Flames - Reroute To Remain tab

-----------------------------------------------------------------------
			     Reroute To Remain  In Flames
-----------------------------------------------------------------------
Tabbed by: xXcriesinvainXx
Email: Apocalypse674@aol.com

Tuning: Drop C

Intro
D|-------------------------------------------------------|
A|-------------------------------------------------------|
F|-------------------------------------------------------|
C|-----------------------------------------------------X4|
G|---------------------------------------8-7-7-8-10-8-7--|
C|3-0-8-7-0-5-3b-0-0-0-000-000-3-0-8-7-0-----------------|
                 X x x xxx xxx         x
[ Tab from: http://www.guitaretab.com/i/in-flames/49678.html ]
D|-----------------|
A|-----------------|
F|7-777777---------|
C|7-777777-8-7-3-0|
G|5-555555-8-7-3-0|
C|----------8-7-3-0|
    Xxxxxx


Im not completely sure about this solo part but this is what it sounds like to me
D|------------------------------------------------------------------|
A|------------------------------------------------------------------|
F|------------------------------------------------------------------|
C|/10-12-14/15\14br-12--------------10-12-14/19-17-15-14-15-14-12~~-|
G|---------------------10-7-8-7br-7---------------------------------|
C|------------------------------------------------------------------|


| / slide up
| \ slide down
| h hammer-on
| p pull-off
| ~ vibrato
| + harmonic
| X Mute note
Related for Reroute To Remain tab