Song name
# A B C D E F G H I J K L M N O P Q R S T U V W X Y Z

In Flames - In Search For I tab

In Flames
In Search for I
From their new Album
Tabbed by Kevin Cruz

I Figured this Son out in Drop-C

Drop-C

|----------------------------------|---------------------|
|----------------------------------|---------------------|
|----------------------------------|---------------------|
|----------------------------------|---------------------| 2x
|-5-------5---3---5-----8---8-7----|-------8---7--7--7-8-|
|---0-0-0---0---0---0-0---0-----10-|-6-6-6---6----5------|
    . . .   .   .   . .   .          . . .   .  

|------------------------------------------------|
|------------------------------------------------|
|--------------------5-5------5------------------|
|-----------6-6--5-6------5-6--------------------| 2x
|-8-----6-8-----------------------------6-6-6-6--|
|---0-0-------------------------8-8-8-8----------|
    . .                         

                     1.2.3.       4.              
|--------------------------|--------|
|--------------------------|--------|
|--------------------------|--------|
|--------------------------|--------|
|-5-----3-5----------------|--5--3--|
|---0-0-----\6-5p0-000-000-|--3--1--|
Tap to rate this tab
# A B C D E F G H I J K L M N O P Q R S T U V W X Y Z