Song name
# A B C D E F G H I J K L M N O P Q R S T U V W X Y Z

In Flames - Bottled tab

k i didnt know the solo, so i figured it out. same tuning and everything   (A# F A# D# G 
here goes. enjoy


|---------------------------------|
|---------------------------------|
|-10-8-7--10-8-7--12-10-9--10-9-8-|
|---------------------------------|
|---------------------------------|
|---------------------------------|
| *keeps going, the solo is continuous*        repeat once
|-----------------------------|
|-----------------------------|
|-9-7-6--10-8-7--9-7-6--8-6-5-|
|-----------------------------|
|-----------------------------|
|-----------------------------|


|------------------------------------|
|-9-7-6--9-7-6--11-9-8--9-7-6--8-6-5-|
|------------------------------------|
|------------------------------------|
|------------------------------------|
|------------------------------------|
| *keeps going, like the other part*            repeat once
|---------------------|
|-9-7-6--8-6-5--7-5-4-|
|---------------------|
|---------------------|
|---------------------|
|---------------------|


hardest part is to keep it going, but its not bad at all.
Tap to rate this tab
# A B C D E F G H I J K L M N O P Q R S T U V W X Y Z